  0
SECTION
  2
HEADER
  9
$ACADVER
  1
AC1015
  9
$ACADMAINTVER
 70
     6
  9
$DWGCODEPAGE
  3
DOS932
  9
$INSBASE
 10
0.0
 20
0.0
 30
0.0
  9
$EXTMIN
 10
0.0
 20
0.0
 30
0.0
  9
$EXTMAX
 10
5940.0
 20
4200.0
 30
0.0
  9
$LIMMIN
 10
0.0
 20
0.0
  9
$LIMMAX
 10
5940.0
 20
4200.0
  9
$ORTHOMODE
 70
     0
  9
$REGENMODE
 70
     1
  9
$FILLMODE
 70
     1
  9
$QTEXTMODE
 70
     0
  9
$MIRRTEXT
 70
     1
  9
$LTSCALE
 40
5.0
  9
$ATTMODE
 70
     1
  9
$TEXTSIZE
 40
100.0
  9
$TRACEWID
 40
0.05
  9
$TEXTSTYLE
  7
Standard
  9
$CLAYER
  8
0
  9
$CELTYPE
  6
Continuous
  9
$CECOLOR
 62
   256
  9
$CELTSCALE
 40
1.0
  9
$DISPSILH
 70
     0
  9
$DIMSCALE
 40
20.0
  9
$DIMASZ
 40
2.0
  9
$DIMEXO
 40
1.0
  9
$DIMDLI
 40
10.0
  9
$DIMRND
 40
0.0
  9
$DIMDLE
 40
0.0
  9
$DIMEXE
 40
1.0
  9
$DIMTP
 40
0.0
  9
$DIMTM
 40
0.0
  9
$DIMTXT
 40
3.0
  9
$DIMCEN
 40
0.09
  9
$DIMTSZ
 40
0.0
  9
$DIMTOL
 70
     0
  9
$DIMLIM
 70
     0
  9
$DIMTIH
 70
     0
  9
$DIMTOH
 70
     0
  9
$DIMSE1
 70
     0
  9
$DIMSE2
 70
     0
  9
$DIMTAD
 70
     3
  9
$DIMZIN
 70
     0
  9
$DIMBLK
  1

  9
$DIMASO
 70
     1
  9
$DIMSHO
 70
     1
  9
$DIMPOST
  1

  9
$DIMAPOST
  1

  9
$DIMALT
 70
     0
  9
$DIMALTD
 70
     2
  9
$DIMALTF
 40
25.4
  9
$DIMLFAC
 40
1.0
  9
$DIMTOFL
 70
     1
  9
$DIMTVP
 40
0.7
  9
$DIMTIX
 70
     0
  9
$DIMSOXD
 70
     0
  9
$DIMSAH
 70
     0
  9
$DIMBLK1
  1

  9
$DIMBLK2
  1

  9
$DIMSTYLE
  2
Standard
  9
$DIMCLRD
 70
     0
  9
$DIMCLRE
 70
     0
  9
$DIMCLRT
 70
     0
  9
$DIMTFAC
 40
0.5
  9
$DIMGAP
 40
0.0
  9
$DIMJUST
 70
     0
  9
$DIMSD1
 70
     0
  9
$DIMSD2
 70
     0
  9
$DIMTOLJ
 70
     1
  9
$DIMTZIN
 70
     0
  9
$DIMALTZ
 70
     0
  9
$DIMALTTZ
 70
     0
  9
$DIMUPT
 70
     0
  9
$DIMDEC
 70
     1
  9
$DIMTDEC
 70
     4
  9
$DIMALTU
 70
     2
  9
$DIMALTTD
 70
     2
  9
$DIMTXSTY
  7
Standard
  9
$DIMAUNIT
 70
     0
  9
$DIMADEC
 70
     0
  9
$DIMALTRND
 40
0.0
  9
$DIMAZIN
 70
     0
  9
$DIMDSEP
 70
     0
  9
$DIMATFIT
 70
     3
  9
$DIMFRAC
 70
     0
  9
$DIMLDRBLK
  1

  9
$DIMLUNIT
 70
     2
  9
$DIMLWD
 70
     0
  9
$DIMLWE
 70
     0
  9
$DIMTMOVE
 70
     0
  9
$LUNITS
 70
     2
  9
$LUPREC
 70
     4
  9
$SKETCHINC
 40
0.1
  9
$FILLETRAD
 40
0.0
  9
$AUNITS
 70
     0
  9
$AUPREC
 70
     0
  9
$MENU
  1
acad
  9
$ELEVATION
 40
0.0
  9
$PELEVATION
 40
0.0
  9
$THICKNESS
 40
0.0
  9
$LIMCHECK
 70
     0
  9
$CHAMFERA
 40
0.0
  9
$CHAMFERB
 40
0.0
  9
$CHAMFERC
 40
0.0
  9
$CHAMFERD
 40
0.0
  9
$SKPOLY
 70
     0
  9
$TDCREATE
 40
2456135.605011574
  9
$TDUCREATE
 40
0.000000000
  9
$TDUPDATE
 40
2456135.605011574
  9
$TDUUPDATE
 40
0.000000000
  9
$TDINDWG
 40
0.0000000000
  9
$TDUSRTIMER
 40
0.0000000000
  9
$USRTIMER
 70
     1
  9
$ANGBASE
 50
0.0
  9
$ANGDIR
 70
     0
  9
$PDMODE
 70
     0
  9
$PDSIZE
 40
0.0
  9
$PLINEWID
 40
0.0
  9
$SPLFRAME
 70
     0
  9
$SPLINETYPE
 70
     6
  9
$SPLINESEGS
 70
     8
  9
$HANDSEED
  5
662
  9
$SURFTAB1
 70
     6
  9
$SURFTAB2
 70
     6
  9
$SURFTYPE
 70
     6
  9
$SURFU
 70
     6
  9
$SURFV
 70
     6
  9
$UCSBASE
  2

  9
$UCSNAME
  2

  9
$UCSORG
 10
0.0
 20
0.0
 30
0.0
  9
$UCSXDIR
 10
1.0
 20
0.0
 30
0.0
  9
$UCSYDIR
 10
0.0
 20
1.0
 30
0.0
  9
$UCSORTHOREF
  2

  9
$UCSORTHOVIEW
 70
     0
  9
$UCSORGTOP
 10
0.0
 20
0.0
 30
0.0
  9
$UCSORGBOTTOM
 10
0.0
 20
0.0
 30
0.0
  9
$UCSORGLEFT
 10
0.0
 20
0.0
 30
0.0
  9
$UCSORGRIGHT
 10
0.0
 20
0.0
 30
0.0
  9
$UCSORGFRONT
 10
0.0
 20
0.0
 30
0.0
  9
$UCSORGBACK
 10
0.0
 20
0.0
 30
0.0
  9
$PUCSBASE
  2

  9
$PUCSNAME
  2

  9
$PUCSORG
 10
0.0
 20
0.0
 30
0.0
  9
$PUCSXDIR
 10
1.0
 20
0.0
 30
0.0
  9
$PUCSYDIR
 10
0.0
 20
1.0
 30
0.0
  9
$PUCSORTHOREF
  2

  9
$PUCSORTHOVIEW
 70
     0
  9
$PUCSORGTOP
 10
0.0
 20
0.0
 30
0.0
  9
$PUCSORGBOTTOM
 10
0.0
 20
0.0
 30
0.0
  9
$PUCSORGLEFT
 10
0.0
 20
0.0
 30
0.0
  9
$PUCSORGRIGHT
 10
0.0
 20
0.0
 30
0.0
  9
$PUCSORGFRONT
 10
0.0
 20
0.0
 30
0.0
  9
$PUCSORGBACK
 10
0.0
 20
0.0
 30
0.0
  9
$USERI1
 70
     0
  9
$USERI2
 70
     0
  9
$USERI3
 70
     0
  9
$USERI4
 70
     0
  9
$USERI5
 70
     0
  9
$USERR1
 40
0.0
  9
$USERR2
 40
0.0
  9
$USERR3
 40
0.0
  9
$USERR4
 40
0.0
  9
$USERR5
 40
0.0
  9
$WORLDVIEW
 70
     1
  9
$SHADEDGE
 70
     3
  9
$SHADEDIF
 70
    70
  9
$TILEMODE
 70
     1
  9
$MAXACTVP
 70
    16
  9
$PINSBASE
 10
0.0
 20
0.0
 30
0.0
  9
$PLIMCHECK
 70
     0
  9
$PEXTMIN
 10
0.0
 20
0.0
 30
0.0
  9
$PEXTMAX
 10
297.0
 20
210.0
 30
0.0
  9
$PLIMMIN
 10
0.0
 20
0.0
  9
$PLIMMAX
 10
297.0
 20
210.0
  9
$UNITMODE
 70
     0
  9
$VISRETAIN
 70
     0
  9
$PLINEGEN
 70
     1
  9
$PSLTSCALE
 70
     0
  9
$TREEDEPTH
 70
  3020
  9
$CMLSTYLE
  2
Standard
  9
$CMLJUST
 70
     0
  9
$CMLSCALE
 40
1.0
  9
$PROXYGRAPHICS
 70
     0
  9
$MEASUREMENT
 70
     0
  9
$CELWEIGHT
370
     0
  9
$ENDCAPS
280
     0
  9
$JOINSTYLE
280
     0
  9
$LWDISPLAY
290
     0
  9
$INSUNITS
 70
     0
  9
$HYPERLINKBASE
  1

  9
$XEDIT
290
     1
  9
$CEPSNTYPE
380
     0
  9
$PSTYLEMODE
290
     1
  9
$FINGERPRINTGUID
  2

  9
$VERSIONGUID
  2

  9
$EXTNAMES
290
     1
  9
$PSVPSCALE
 40
0.0
  0
ENDSEC
  0
SECTION
  2
CLASSES
  0
CLASS
  1
LWPOLYLINE
  2
AcDbPolyline
  3
AutoCAD 2000
 90
    32768
280
     0
281
     1
  0
CLASS
  1
IMAGE
  2
AcDbRasterImage
  3
ISM
 90
    32895
280
     0
281
     1
  0
CLASS
  1
OLE2FRAME
  2
AcDbOle2Frame
  3
AutoCAD 2000
 90
    32768
280
     0
281
     1
  0
CLASS
  1
HATCH
  2
AcDbHatch
  3
AutoCAD 2000
 90
    32768
280
     0
281
     1
  0
CLASS
  1
DICTIONARYVAR
  2
AcDbDictionaryVar
  3
AutoCAD 2000
 90
    32768
280
     0
281
     0
  0
CLASS
  1
RASTERVARIABLES
  2
AcDbRasterVariables
  3
ISM
 90
    32768
280
     0
281
     0
  0
CLASS
  1
IMAGEDEF
  2
AcDbRasterImageDef
  3
ISM
 90
    32768
280
     0
281
     0
  0
CLASS
  1
IMAGEDEF_REACTOR
  2
AcDbRasterImageDefReactor
  3
ISM
 90
    32769
280
     0
281
     0
  0
CLASS
  1
IDBUFFER
  2
AcDbIdBuffer
  3
AutoCAD 2000
 90
    32768
280
     0
281
     0
  0
CLASS
  1
SPATIAL_FILTER
  2
AcDbSpatialFilter
  3
AutoCAD 2000
 90
    32768
280
     0
281
     0
  0
CLASS
  1
XRECORD
  2
AcDbXrecord
  3
AutoCAD 2000
 90
    32768
280
     0
281
     0
  0
CLASS
  1
SORTENTSTABLE
  2
AcDbSortentsTable
  3
AutoCAD 2000
 90
    32768
280
     0
281
     0
  0
CLASS
  1
LAYER_INDEX
  2
AcDbLayerIndex
  3
AutoCAD 2000
 90
    32768
280
     0
281
     0
  0
CLASS
  1
SPATIAL_INDEX
  2
AcDbSpatialIndex
  3
AutoCAD 2000
 90
    32768
280
     0
281
     0
  0
CLASS
  1
OBJECT_PTR
  2
CAseDLPNTableRecord
  3
"ASE-LPNTableRecord"
 90
    32769
280
     0
281
     0
  0
CLASS
  1
LAYOUT
  2
AcDbLayout
  3
AutoCAD 2000
 90
        0
280
     0
281
     0
  0
CLASS
  1
PLOTSETTINGS
  2
AcDbPlotSettings
  3
AutoCAD 2000
 90
    32768
280
     0
281
     0
  0
CLASS
  1
ACDBDICTIONARYWDFLT
  2
AcDbDictionaryWithDefault
  3
AutoCAD 2000
 90
        0
280
     0
281
     0
  0
CLASS
  1
ACDBPLACEHOLDER
  2
AcDbPlaceHolder
  3
AutoCAD 2000
 90
        0
280
     0
281
     0
  0
CLASS
  1
VBA_PROJECT
  2
AcDbVbaProject
  3
acadvba
 90
    32768
280
     0
281
     0
  0
CLASS
  1
WIPEOUT
  2
AcDbWipeout
  3
WipeOut|AutoCAD Express Tool|expresstools@autodesk.com
 90
    32895
280
     0
281
     1
  0
CLASS
  1
WIPEOUTVARIABLES
  2
AcDbWipeoutVariables
  3
WipeOut|AutoCAD Express Tool|expresstools@autodesk.com
 90
        0
280
     0
281
     0
  0
CLASS
  1
RTEXT
  2
RText
  3
RText|AutoCAD Express Tool|expresstools@autodesk.com
 90
    32768
280
     0
281
     1
  0
CLASS
  1
ARCALIGNEDTEXT
  2
AcDbArcAlignedText
  3
ATEXT|AutoCAD Express Tool|expresstools@autodesk.com
 90
    32768
280
     0
281
     1
  0
ENDSEC
  0
SECTION
  2
TABLES
  0
TABLE
  2
VPORT
  5
7
100
AcDbSymbolTable
 70
     1
  0
VPORT
  5
15
100
AcDbSymbolTableRecord
100
AcDbViewportTableRecord
  2
*ACTIVE
 70
     0
 10
0.0
 20
0.0
 11
1.0
 21
1.0
 12
6.591288
 22
4.579184
 13
0.0
 23
0.0
 14
1.0
 24
1.0
 15
0.0
 25
0.0
 16
0.0
 26
0.0
 36
1.0
 17
0.0
 27
0.0
 37
0.0
 40
9.158369
 41
0.688564
 42
50.0
 43
0.0
 44
0.0
 50
0.0
 51
0.0
 71
     0
 72
   100
 73
     1
 74
     1
 75
     0
 76
     0
 77
     0
 78
     0
281
     0
 65
     0
110
0.0
120
0.0
130
0.0
111
1.0
121
0.0
131
0.0
112
0.0
122
1.0
132
0.0
345
0
346
0
 79
     0
146
0.0
  0
ENDTAB
  0
TABLE
  2
LTYPE
  5
4
100
AcDbSymbolTable
 70
     9
  0
LTYPE
  5
11
100
AcDbSymbolTableRecord
100
AcDbLinetypeTableRecord
  2
ByBlock
 70
    64
  3

 72
    65
 73
     0
 40
0.0
  0
LTYPE
  5
12
100
AcDbSymbolTableRecord
100
AcDbLinetypeTableRecord
  2
ByLayer
 70
    64
  3

 72
    65
 73
     0
 40
0.0
  0
LTYPE
  5
13
100
AcDbSymbolTableRecord
100
AcDbLinetypeTableRecord
  2
Continuous
 70
    64
  3
Solid line
 72
    65
 73
     0
 40
0.0
  0
LTYPE
  5
24
100
AcDbSymbolTableRecord
100
AcDbLinetypeTableRecord
  2
HIDDEN
 70
    64
  3
- - - - - - - - 
 72
    65
 73
     2
 40
12.6
 49
8.4
 74
     0
 49
-4.2
 74
     0
  0
LTYPE
  5
25
100
AcDbSymbolTableRecord
100
AcDbLinetypeTableRecord
  2
DOT
 70
    64
  3
･ ･ ･ ･ ･ ･ ･ ･ 
 72
    65
 73
     2
 40
8.0
 49
6.0
 74
     0
 49
-2.0
 74
     0
  0
LTYPE
  5
26
100
AcDbSymbolTableRecord
100
AcDbLinetypeTableRecord
  2
CENTER
 70
    64
  3
- ･ - ･ - ･ - ･ 
 72
    65
 73
     4
 40
50.5
 49
30.0
 74
     0
 49
-9.0
 74
     0
 49
2.5
 74
     0
 49
-9.0
 74
     0
  0
LTYPE
  5
27
100
AcDbSymbolTableRecord
100
AcDbLinetypeTableRecord
  2
PHANTOM
 70
    64
  3
- ･･ - ･･ - ･･ - ･･ 
 72
    65
 73
     6
 40
58.0
 49
30.0
 74
     0
 49
-9.0
 74
     0
 49
2.5
 74
     0
 49
-5.0
 74
     0
 49
2.5
 74
     0
 49
-9.0
 74
     0
  0
LTYPE
  5
28
100
AcDbSymbolTableRecord
100
AcDbLinetypeTableRecord
  2
ACAD_ISO06W100
 70
    64
  3
____ ... ____ ... ____
 72
    65
 73
     8
 40
37.5
 49
24.0
 74
     0
 49
-3.0
 74
     0
 49
0.5
 74
     0
 49
-3.0
 74
     0
 49
0.5
 74
     0
 49
-3.0
 74
     0
 49
0.5
 74
     0
 49
-3.0
 74
     0
  0
LTYPE
  5
29
100
AcDbSymbolTableRecord
100
AcDbLinetypeTableRecord
  2
ACAD_ISO14W100
 70
    64
  3
__ . . . __ . . . __ . . . 
 72
    65
 73
     8
 40
25.5
 49
12.0
 74
     0
 49
-3.0
 74
     0
 49
0.5
 74
     0
 49
-3.0
 74
     0
 49
0.5
 74
     0
 49
-3.0
 74
     0
 49
0.5
 74
     0
 49
-3.0
 74
     0
  0
ENDTAB
  0
TABLE
  2
LAYER
  5
2
100
AcDbSymbolTable
 70
   183
  0
LAYER
  5
14
100
AcDbSymbolTableRecord
100
AcDbLayerTableRecord
  2
0
 70
     0
 62
     7
  6
Continuous
290
     1
370
    -3
390
1D
  0
LAYER
  5
2A
100
AcDbSymbolTableRecord
100
AcDbLayerTableRecord
  2
1
 70
     0
 62
   142
  6
Continuous
290
     1
370
    -3
390
1F
  0
LAYER
  5
2B
100
AcDbSymbolTableRecord
100
AcDbLayerTableRecord
  2
2
 70
     0
 62
   174
  6
Continuous
290
     1
370
    -3
390
1F
  0
LAYER
  5
2C
100
AcDbSymbolTableRecord
100
AcDbLayerTableRecord
  2
3
 70
     0
 62
   171
  6
Continuous
290
     1
370
    -3
390
1F
  0
LAYER
  5
2D
100
AcDbSymbolTableRecord
100
AcDbLayerTableRecord
  2
4
 70
     0
 62
    54
  6
Continuous
290
     1
370
    -3
390
1F
  0
LAYER
  5
2E
100
AcDbSymbolTableRecord
100
AcDbLayerTableRecord
  2
5
 70
     0
 62
    11
  6
Continuous
290
     1
370
    -3
390
1F
  0
LAYER
  5
2F
100
AcDbSymbolTableRecord
100
AcDbLayerTableRecord
  2
6
 70
     0
 62
    14
  6
Continuous
290
     1
370
    -3
390
1F
  0
LAYER
  5
30
100
AcDbSymbolTableRecord
100
AcDbLayerTableRecord
  2
7
 70
     0
 62
   136
  6
Continuous
290
     1
370
    -3
390
1F
  0
LAYER
  5
31
100
AcDbSymbolTableRecord
100
AcDbLayerTableRecord
  2
8
 70
     0
 62
     6
  6
Continuous
290
     1
370
    -3
390
1F
  0
LAYER
  5
32
100
AcDbSymbolTableRecord
100
AcDbLayerTableRecord
  2
9
 70
     0
 62
   251
  6
Continuous
290
     1
370
    -3
390
1F
  0
LAYER
  5
33
100
AcDbSymbolTableRecord
100
AcDbLayerTableRecord
  2
10
 70
     0
 62
     3
  6
Continuous
290
     1
370
    -3
390
1F
  0
LAYER
  5
34
100
AcDbSymbolTableRecord
100
AcDbLayerTableRecord
  2
11
 70
     0
 62
   251
  6
Continuous
290
     1
370
    -3
390
1F
  0
LAYER
  5
35
100
AcDbSymbolTableRecord
100
AcDbLayerTableRecord
  2
12
 70
     0
 62
   136
  6
Continuous
290
     1
370
    -3
390
1F
  0
LAYER
  5
36
100
AcDbSymbolTableRecord
100
AcDbLayerTableRecord
  2
13
 70
     0
 62
   216
  6
Continuous
290
     1
370
    -3
390
1F
  0
LAYER
  5
37
100
AcDbSymbolTableRecord
100
AcDbLayerTableRecord
  2
14
 70
     0
 62
    56
  6
Continuous
290
     1
370
    -3
390
1F
  0
LAYER
  5
38
100
AcDbSymbolTableRecord
100
AcDbLayerTableRecord
  2
15
 70
     0
 62
    96
  6
Continuous
290
     1
370
    -3
390
1F
  0
LAYER
  5
39
100
AcDbSymbolTableRecord
100
AcDbLayerTableRecord
  2
16
 70
     0
 62
    16
  6
Continuous
290
     1
370
    -3
390
1F
  0
LAYER
  5
3A
100
AcDbSymbolTableRecord
100
AcDbLayerTableRecord
  2
17
 70
     0
 62
   132
  6
Continuous
290
     1
370
    -3
390
1F
  0
LAYER
  5
3B
100
AcDbSymbolTableRecord
100
AcDbLayerTableRecord
  2
18
 70
     0
 62
   212
  6
Continuous
290
     1
370
    -3
390
1F
  0
LAYER
  5
3C
100
AcDbSymbolTableRecord
100
AcDbLayerTableRecord
  2
19
 70
     0
 62
    52
  6
Continuous
290
     1
370
    -3
390
1F
  0
LAYER
  5
3D
100
AcDbSymbolTableRecord
100
AcDbLayerTableRecord
  2
20
 70
     0
 62
     6
  6
Continuous
290
     1
370
    -3
390
1F
  0
LAYER
  5
3E
100
AcDbSymbolTableRecord
100
AcDbLayerTableRecord
  2
21
 70
     0
 62
    30
  6
Continuous
290
     1
370
    -3
390
1F
  0
LAYER
  5
3F
100
AcDbSymbolTableRecord
100
AcDbLayerTableRecord
  2
22
 70
     0
 62
     4
  6
Continuous
290
     1
370
    -3
390
1F
  0
LAYER
  5
40
100
AcDbSymbolTableRecord
100
AcDbLayerTableRecord
  2
23
 70
     0
 62
     3
  6
Continuous
290
     1
370
    -3
390
1F
  0
LAYER
  5
41
100
AcDbSymbolTableRecord
100
AcDbLayerTableRecord
  2
24
 70
     0
 62
     6
  6
Continuous
290
     1
370
    -3
390
1F
  0
LAYER
  5
42
100
AcDbSymbolTableRecord
100
AcDbLayerTableRecord
  2
25
 70
     0
 62
     2
  6
Continuous
290
     1
370
    -3
390
1F
  0
LAYER
  5
43
100
AcDbSymbolTableRecord
100
AcDbLayerTableRecord
  2
26
 70
     0
 62
     7
  6
Continuous
290
     1
370
    -3
390
1F
  0
LAYER
  5
44
100
AcDbSymbolTableRecord
100
AcDbLayerTableRecord
  2
27
 70
     0
 62
     4
  6
Continuous
290
     1
370
    -3
390
1F
  0
LAYER
  5
45
100
AcDbSymbolTableRecord
100
AcDbLayerTableRecord
  2
28
 70
     0
 62
     3
  6
Continuous
290
     1
370
    -3
390
1F
  0
LAYER
  5
46
100
AcDbSymbolTableRecord
100
AcDbLayerTableRecord
  2
29
 70
     0
 62
     6
  6
Continuous
290
     1
370
    -3
390
1F
  0
LAYER
  5
47
100
AcDbSymbolTableRecord
100
AcDbLayerTableRecord
  2
30
 70
     0
 62
     2
  6
Continuous
290
     1
370
    -3
390
1F
  0
LAYER
  5
48
100
AcDbSymbolTableRecord
100
AcDbLayerTableRecord
  2
31
 70
     0
 62
     7
  6
Continuous
290
     1
370
    -3
390
1F
  0
LAYER
  5
49
100
AcDbSymbolTableRecord
100
AcDbLayerTableRecord
  2
32
 70
     0
 62
     4
  6
Continuous
290
     1
370
    -3
390
1F
  0
LAYER
  5
4A
100
AcDbSymbolTableRecord
100
AcDbLayerTableRecord
  2
33
 70
     0
 62
     3
  6
Continuous
290
     1
370
    -3
390
1F
  0
LAYER
  5
4B
100
AcDbSymbolTableRecord
100
AcDbLayerTableRecord
  2
34
 70
     0
 62
     6
  6
Continuous
290
     1
370
    -3
390
1F
  0
LAYER
  5
4C
100
AcDbSymbolTableRecord
100
AcDbLayerTableRecord
  2
35
 70
     0
 62
     2
  6
Continuous
290
     1
370
    -3
390
1F
  0
LAYER
  5
4D
100
AcDbSymbolTableRecord
100
AcDbLayerTableRecord
  2
36
 70
     0
 62
     7
  6
Continuous
290
     1
370
    -3
390
1F
  0
LAYER
  5
4E
100
AcDbSymbolTableRecord
100
AcDbLayerTableRecord
  2
37
 70
     0
 62
     4
  6
Continuous
290
     1
370
    -3
390
1F
  0
LAYER
  5
4F
100
AcDbSymbolTableRecord
100
AcDbLayerTableRecord
  2
38
 70
     0
 62
     3
  6
Continuous
290
     1
370
    -3
390
1F
  0
LAYER
  5
50
100
AcDbSymbolTableRecord
100
AcDbLayerTableRecord
  2
39
 70
     0
 62
     6
  6
Continuous
290
     1
370
    -3
390
1F
  0
LAYER
  5
51
100
AcDbSymbolTableRecord
100
AcDbLayerTableRecord
  2
40
 70
     0
 62
     2
  6
Continuous
290
     1
370
    -3
390
1F
  0
LAYER
  5
52
100
AcDbSymbolTableRecord
100
AcDbLayerTableRecord
  2
41
 70
     0
 62
     7
  6
Continuous
290
     1
370
    -3
390
1F
  0
LAYER
  5
53
100
AcDbSymbolTableRecord
100
AcDbLayerTableRecord
  2
42
 70
     0
 62
     4
  6
Continuous
290
     1
370
    -3
390
1F
  0
LAYER
  5
54
100
AcDbSymbolTableRecord
100
AcDbLayerTableRecord
  2
43
 70
     0
 62
     3
  6
Continuous
290
     1
370
    -3
390
1F
  0
LAYER
  5
55
100
AcDbSymbolTableRecord
100
AcDbLayerTableRecord
  2
44
 70
     0
 62
     6
  6
Continuous
290
     1
370
    -3
390
1F
  0
LAYER
  5
56
100
AcDbSymbolTableRecord
100
AcDbLayerTableRecord
  2
45
 70
     0
 62
     2
  6
Continuous
290
     1
370
    -3
390
1F
  0
LAYER
  5
57
100
AcDbSymbolTableRecord
100
AcDbLayerTableRecord
  2
46
 70
     0
 62
     7
  6
Continuous
290
     1
370
    -3
390
1F
  0
LAYER
  5
58
100
AcDbSymbolTableRecord
100
AcDbLayerTableRecord
  2
47
 70
     0
 62
     4
  6
Continuous
290
     1
370
    -3
390
1F
  0
LAYER
  5
59
100
AcDbSymbolTableRecord
100
AcDbLayerTableRecord
  2
48
 70
     0
 62
     3
  6
Continuous
290
     1
370
    -3
390
1F
  0
LAYER
  5
5A
100
AcDbSymbolTableRecord
100
AcDbLayerTableRecord
  2
49
 70
     0
 62
     6
  6
Continuous
290
     1
370
    -3
390
1F
  0
LAYER
  5
5B
100
AcDbSymbolTableRecord
100
AcDbLayerTableRecord
  2
50
 70
     0
 62
     2
  6
Continuous
290
     1
370
    -3
390
1F
  0
LAYER
  5
5C
100
AcDbSymbolTableRecord
100
AcDbLayerTableRecord
  2
51
 70
     0
 62
     7
  6
Continuous
290
     1
370
    -3
390
1F
  0
LAYER
  5
5D
100
AcDbSymbolTableRecord
100
AcDbLayerTableRecord
  2
52
 70
     0
 62
     4
  6
Continuous
290
     1
370
    -3
390
1F
  0
LAYER
  5
5E
100
AcDbSymbolTableRecord
100
AcDbLayerTableRecord
  2
53
 70
     0
 62
     3
  6
Continuous
290
     1
370
    -3
390
1F
  0
LAYER
  5
5F
100
AcDbSymbolTableRecord
100
AcDbLayerTableRecord
  2
54
 70
     0
 62
     6
  6
Continuous
290
     1
370
    -3
390
1F
  0
LAYER
  5
60
100
AcDbSymbolTableRecord
100
AcDbLayerTableRecord
  2
55
 70
     0
 62
     2
  6
Continuous
290
     1
370
    -3
390
1F
  0
LAYER
  5
61
100
AcDbSymbolTableRecord
100
AcDbLayerTableRecord
  2
56
 70
     0
 62
     7
  6
Continuous
290
     1
370
    -3
390
1F
  0
LAYER
  5
62
100
AcDbSymbolTableRecord
100
AcDbLayerTableRecord
  2
57
 70
     0
 62
     4
  6
Continuous
290
     1
370
    -3
390
1F
  0
LAYER
  5
63
100
AcDbSymbolTableRecord
100
AcDbLayerTableRecord
  2
58
 70
     0
 62
     3
  6
Continuous
290
     1
370
    -3
390
1F
  0
LAYER
  5
64
100
AcDbSymbolTableRecord
100
AcDbLayerTableRecord
  2
59
 70
     0
 62
     6
  6
Continuous
290
     1
370
    -3
390
1F
  0
LAYER
  5
65
100
AcDbSymbolTableRecord
100
AcDbLayerTableRecord
  2
60
 70
     0
 62
     2
  6
Continuous
290
     1
370
    -3
390
1F
  0
LAYER
  5
66
100
AcDbSymbolTableRecord
100
AcDbLayerTableRecord
  2
61
 70
     0
 62
     7
  6
Continuous
290
     1
370
    -3
390
1F
  0
LAYER
  5
67
100
AcDbSymbolTableRecord
100
AcDbLayerTableRecord
  2
62
 70
     0
 62
     4
  6
Continuous
290
     1
370
    -3
390
1F
  0
LAYER
  5
68
100
AcDbSymbolTableRecord
100
AcDbLayerTableRecord
  2
63
 70
     0
 62
     3
  6
Continuous
290
     1
370
    -3
390
1F
  0
LAYER
  5
69
100
AcDbSymbolTableRecord
100
AcDbLayerTableRecord
  2
64
 70
     0
 62
     6
  6
Continuous
290
     1
370
    -3
390
1F
  0
LAYER
  5
6A
100
AcDbSymbolTableRecord
100
AcDbLayerTableRecord
  2
65
 70
     0
 62
     2
  6
Continuous
290
     1
370
    -3
390
1F
  0
LAYER
  5
6B
100
AcDbSymbolTableRecord
100
AcDbLayerTableRecord
  2
66
 70
     0
 62
     7
  6
Continuous
290
     1
370
    -3
390
1F
  0
LAYER
  5
6C
100
AcDbSymbolTableRecord
100
AcDbLayerTableRecord
  2
67
 70
     0
 62
     4
  6
Continuous
290
     1
370
    -3
390
1F
  0
LAYER
  5
6D
100
AcDbSymbolTableRecord
100
AcDbLayerTableRecord
  2
68
 70
     0
 62
     3
  6
Continuous
290
     1
370
    -3
390
1F
  0
LAYER
  5
6E
100
AcDbSymbolTableRecord
100
AcDbLayerTableRecord
  2
69
 70
     0
 62
     6
  6
Continuous
290
     1
370
    -3
390
1F
  0
LAYER
  5
6F
100
AcDbSymbolTableRecord
100
AcDbLayerTableRecord
  2
70
 70
     0
 62
     2
  6
Continuous
290
     1
370
    -3
390
1F
  0
LAYER
  5
70
100
AcDbSymbolTableRecord
100
AcDbLayerTableRecord
  2
71
 70
     0
 62
     7
  6
Continuous
290
     1
370
    -3
390
1F
  0
LAYER
  5
71
100
AcDbSymbolTableRecord
100
AcDbLayerTableRecord
  2
72
 70
     0
 62
     4
  6
Continuous
290
     1
370
    -3
390
1F
  0
LAYER
  5
72
100
AcDbSymbolTableRecord
100
AcDbLayerTableRecord
  2
73
 70
     0
 62
     3
  6
Continuous
290
     1
370
    -3
390
1F
  0
LAYER
  5
73
100
AcDbSymbolTableRecord
100
AcDbLayerTableRecord
  2
74
 70
     0
 62
     6
  6
Continuous
290
     1
370
    -3
390
1F
  0
LAYER
  5
74
100
AcDbSymbolTableRecord
100
AcDbLayerTableRecord
  2
75
 70
     0
 62
     2
  6
Continuous
290
     1
370
    -3
390
1F
  0
LAYER
  5
75
100
AcDbSymbolTableRecord
100
AcDbLayerTableRecord
  2
76
 70
     0
 62
     7
  6
Continuous
290
     1
370
    -3
390
1F
  0
LAYER
  5
76
100
AcDbSymbolTableRecord
100
AcDbLayerTableRecord
  2
77
 70
     0
 62
     4
  6
Continuous
290
     1
370
    -3
390
1F
  0
LAYER
  5
77
100
AcDbSymbolTableRecord
100
AcDbLayerTableRecord
  2
78
 70
     0
 62
     3
  6
Continuous
290
     1
370
    -3
390
1F
  0
LAYER
  5
78
100
AcDbSymbolTableRecord
100
AcDbLayerTableRecord
  2
79
 70
     0
 62
     6
  6
Continuous
290
     1
370
    -3
390
1F
  0
LAYER
  5
79
100
AcDbSymbolTableRecord
100
AcDbLayerTableRecord
  2
80
 70
     0
 62
     2
  6
Continuous
290
     1
370
    -3
390
1F
  0
LAYER
  5
7A
100
AcDbSymbolTableRecord
100
AcDbLayerTableRecord
  2
81
 70
     0
 62
     7
  6
Continuous
290
     1
370
    -3
390
1F
  0
LAYER
  5
7B
100
AcDbSymbolTableRecord
100
AcDbLayerTableRecord
  2
82
 70
     0
 62
     4
  6
Continuous
290
     1
370
    -3
390
1F
  0
LAYER
  5
7C
100
AcDbSymbolTableRecord
100
AcDbLayerTableRecord
  2
83
 70
     0
 62
     3
  6
Continuous
290
     1
370
    -3
390
1F
  0
LAYER
  5
7D
100
AcDbSymbolTableRecord
100
AcDbLayerTableRecord
  2
84
 70
     0
 62
     6
  6
Continuous
290
     1
370
    -3
390
1F
  0
LAYER
  5
7E
100
AcDbSymbolTableRecord
100
AcDbLayerTableRecord
  2
85
 70
     0
 62
     2
  6
Continuous
290
     1
370
    -3
390
1F
  0
LAYER
  5
7F
100
AcDbSymbolTableRecord
100
AcDbLayerTableRecord
  2
86
 70
     0
 62
     7
  6
Continuous
290
     1
370
    -3
390
1F
  0
LAYER
  5
80
100
AcDbSymbolTableRecord
100
AcDbLayerTableRecord
  2
87
 70
     0
 62
     4
  6
Continuous
290
     1
370
    -3
390
1F
  0
LAYER
  5
81
100
AcDbSymbolTableRecord
100
AcDbLayerTableRecord
  2
88
 70
     0
 62
     3
  6
Continuous
290
     1
370
    -3
390
1F
  0
LAYER
  5
82
100
AcDbSymbolTableRecord
100
AcDbLayerTableRecord
  2
89
 70
     0
 62
     6
  6
Continuous
290
     1
370
    -3
390
1F
  0
LAYER
  5
83
100
AcDbSymbolTableRecord
100
AcDbLayerTableRecord
  2
90
 70
     0
 62
     2
  6
Continuous
290
     1
370
    -3
390
1F
  0
LAYER
  5
84
100
AcDbSymbolTableRecord
100
AcDbLayerTableRecord
  2
91
 70
     0
 62
     7
  6
Continuous
290
     1
370
    -3
390
1F
  0
LAYER
  5
85
100
AcDbSymbolTableRecord
100
AcDbLayerTableRecord
  2
92
 70
     0
 62
     4
  6
Continuous
290
     1
370
    -3
390
1F
  0
LAYER
  5
86
100
AcDbSymbolTableRecord
100
AcDbLayerTableRecord
  2
93
 70
     0
 62
     3
  6
Continuous
290
     1
370
    -3
390
1F
  0
LAYER
  5
87
100
AcDbSymbolTableRecord
100
AcDbLayerTableRecord
  2
94
 70
     0
 62
     6
  6
Continuous
290
     1
370
    -3
390
1F
  0
LAYER
  5
88
100
AcDbSymbolTableRecord
100
AcDbLayerTableRecord
  2
95
 70
     0
 62
     2
  6
Continuous
290
     1
370
    -3
390
1F
  0
LAYER
  5
89
100
AcDbSymbolTableRecord
100
AcDbLayerTableRecord
  2
96
 70
     0
 62
     7
  6
Continuous
290
     1
370
    -3
390
1F
  0
LAYER
  5
8A
100
AcDbSymbolTableRecord
100
AcDbLayerTableRecord
  2
97
 70
     0
 62
     4
  6
Continuous
290
     1
370
    -3
390
1F
  0
LAYER
  5
8B
100
AcDbSymbolTableRecord
100
AcDbLayerTableRecord
  2
98
 70
     0
 62
     3
  6
Continuous
290
     1
370
    -3
390
1F
  0
LAYER
  5
8C
100
AcDbSymbolTableRecord
100
AcDbLayerTableRecord
  2
99
 70
     0
 62
     6
  6
Continuous
290
     1
370
    -3
390
1F
  0
LAYER
  5
8D
100
AcDbSymbolTableRecord
100
AcDbLayerTableRecord
  2
100
 70
     0
 62
     2
  6
Continuous
290
     1
370
    -3
390
1F
  0
LAYER
  5
8E
100
AcDbSymbolTableRecord
100
AcDbLayerTableRecord
  2
101
 70
     0
 62
     7
  6
Continuous
290
     1
370
    -3
390
1F
  0
LAYER
  5
8F
100
AcDbSymbolTableRecord
100
AcDbLayerTableRecord
  2
102
 70
     0
 62
     4
  6
Continuous
290
     1
370
    -3
390
1F
  0
LAYER
  5
90
100
AcDbSymbolTableRecord
100
AcDbLayerTableRecord
  2
103
 70
     0
 62
     3
  6
Continuous
290
     1
370
    -3
390
1F
  0
LAYER
  5
91
100
AcDbSymbolTableRecord
100
AcDbLayerTableRecord
  2
104
 70
     0
 62
     6
  6
Continuous
290
     1
370
    -3
390
1F
  0
LAYER
  5
92
100
AcDbSymbolTableRecord
100
AcDbLayerTableRecord
  2
105
 70
     0
 62
     2
  6
Continuous
290
     1
370
    -3
390
1F
  0
LAYER
  5
93
100
AcDbSymbolTableRecord
100
AcDbLayerTableRecord
  2
106
 70
     0
 62
     7
  6
Continuous
290
     1
370
    -3
390
1F
  0
LAYER
  5
94
100
AcDbSymbolTableRecord
100
AcDbLayerTableRecord
  2
107
 70
     0
 62
     4
  6
Continuous
290
     1
370
    -3
390
1F
  0
LAYER
  5
95
100
AcDbSymbolTableRecord
100
AcDbLayerTableRecord
  2
108
 70
     0
 62
     3
  6
Continuous
290
     1
370
    -3
390
1F
  0
LAYER
  5
96
100
AcDbSymbolTableRecord
100
AcDbLayerTableRecord
  2
109
 70
     0
 62
     6
  6
Continuous
290
     1
370
    -3
390
1F
  0
LAYER
  5
97
100
AcDbSymbolTableRecord
100
AcDbLayerTableRecord
  2
110
 70
     0
 62
     2
  6
Continuous
290
     1
370
    -3
390
1F
  0
LAYER
  5
98
100
AcDbSymbolTableRecord
100
AcDbLayerTableRecord
  2
111
 70
     0
 62
     7
  6
Continuous
290
     1
370
    -3
390
1F
  0
LAYER
  5
99
100
AcDbSymbolTableRecord
100
AcDbLayerTableRecord
  2
112
 70
     0
 62
     4
  6
Continuous
290
     1
370
    -3
390
1F
  0
LAYER
  5
9A
100
AcDbSymbolTableRecord
100
AcDbLayerTableRecord
  2
113
 70
     0
 62
     3
  6
Continuous
290
     1
370
    -3
390
1F
  0
LAYER
  5
9B
100
AcDbSymbolTableRecord
100
AcDbLayerTableRecord
  2
114
 70
     0
 62
     6
  6
Continuous
290
     1
370
    -3
390
1F
  0
LAYER
  5
9C
100
AcDbSymbolTableRecord
100
AcDbLayerTableRecord
  2
115
 70
     0
 62
     2
  6
Continuous
290
     1
370
    -3
390
1F
  0
LAYER
  5
9D
100
AcDbSymbolTableRecord
100
AcDbLayerTableRecord
  2
116
 70
     0
 62
     7
  6
Continuous
290
     1
370
    -3
390
1F
  0
LAYER
  5
9E
100
AcDbSymbolTableRecord
100
AcDbLayerTableRecord
  2
117
 70
     0
 62
     4
  6
Continuous
290
     1
370
    -3
390
1F
  0
LAYER
  5
9F
100
AcDbSymbolTableRecord
100
AcDbLayerTableRecord
  2
118
 70
     0
 62
     3
  6
Continuous
290
     1
370
    -3
390
1F
  0
LAYER
  5
A0
100
AcDbSymbolTableRecord
100
AcDbLayerTableRecord
  2
119
 70
     0
 62
     6
  6
Continuous
290
     1
370
    -3
390
1F
  0
LAYER
  5
A1
100
AcDbSymbolTableRecord
100
AcDbLayerTableRecord
  2
120
 70
     0
 62
     2
  6
Continuous
290
     1
370
    -3
390
1F
  0
LAYER
  5
A2
100
AcDbSymbolTableRecord
100
AcDbLayerTableRecord
  2
121
 70
     0
 62
     7
  6
Continuous
290
     1
370
    -3
390
1F
  0
LAYER
  5
A3
100
AcDbSymbolTableRecord
100
AcDbLayerTableRecord
  2
122
 70
     0
 62
     4
  6
Continuous
290
     1
370
    -3
390
1F
  0
LAYER
  5
A4
100
AcDbSymbolTableRecord
100
AcDbLayerTableRecord
  2
123
 70
     0
 62
     3
  6
Continuous
290
     1
370
    -3
390
1F
  0
LAYER
  5
A5
100
AcDbSymbolTableRecord
100
AcDbLayerTableRecord
  2
124
 70
     0
 62
     6
  6
Continuous
290
     1
370
    -3
390
1F
  0
LAYER
  5
A6
100
AcDbSymbolTableRecord
100
AcDbLayerTableRecord
  2
125
 70
     0
 62
     2
  6
Continuous
290
     1
370
    -3
390
1F
  0
LAYER
  5
A7
100
AcDbSymbolTableRecord
100
AcDbLayerTableRecord
  2
126
 70
     0
 62
     7
  6
Continuous
290
     1
370
    -3
390
1F
  0
LAYER
  5
A8
100
AcDbSymbolTableRecord
100
AcDbLayerTableRecord
  2
127
 70
     0
 62
    30
  6
Continuous
290
     1
370
    -3
390
1F
  0
LAYER
  5
A9
100
AcDbSymbolTableRecord
100
AcDbLayerTableRecord
  2
128
 70
     0
 62
     7
  6
Continuous
290
     1
370
    -3
390
1F
  0
LAYER
  5
AA
100
AcDbSymbolTableRecord
100
AcDbLayerTableRecord
  2
129
 70
     0
 62
     7
  6
Continuous
290
     1
370
    -3
390
1F
  0
LAYER
  5
AB
100
AcDbSymbolTableRecord
100
AcDbLayerTableRecord
  2
130
 70
     0
 62
     6
  6
Continuous
290
     1
370
    -3
390
1F
  0
LAYER
  5
AC
100
AcDbSymbolTableRecord
100
AcDbLayerTableRecord
  2
131
 70
     0
 62
     7
  6
Continuous
290
     1
370
    -3
390
1F
  0
LAYER
  5
AD
100
AcDbSymbolTableRecord
100
AcDbLayerTableRecord
  2
132
 70
     0
 62
     7
  6
Continuous
290
     1
370
    -3
390
1F
  0
LAYER
  5
AE
100
AcDbSymbolTableRecord
100
AcDbLayerTableRecord
  2
133
 70
     0
 62
     5
  6
Continuous
290
     1
370
    -3
390
1F
  0
LAYER
  5
AF
100
AcDbSymbolTableRecord
100
AcDbLayerTableRecord
  2
134
 70
     0
 62
    12
  6
Continuous
290
     1
370
    -3
390
1F
  0
LAYER
  5
B0
100
AcDbSymbolTableRecord
100
AcDbLayerTableRecord
  2
135
 70
     0
 62
     1
  6
Continuous
290
     1
370
    -3
390
1F
  0
LAYER
  5
B1
100
AcDbSymbolTableRecord
100
AcDbLayerTableRecord
  2
136
 70
     0
 62
     7
  6
Continuous
290
     1
370
    -3
390
1F
  0
LAYER
  5
B2
100
AcDbSymbolTableRecord
100
AcDbLayerTableRecord
  2
137
 70
     0
 62
     4
  6
Continuous
290
     1
370
    -3
390
1F
  0
LAYER
  5
B3
100
AcDbSymbolTableRecord
100
AcDbLayerTableRecord
  2
209
 70
     0
 62
    94
  6
Continuous
290
     1
370
    -3
390
1F
  0
LAYER
  5
B4
100
AcDbSymbolTableRecord
100
AcDbLayerTableRecord
  2
232
 70
     0
 62
     7
  6
Continuous
290
     1
370
    -3
390
1F
  0
LAYER
  5
B5
100
AcDbSymbolTableRecord
100
AcDbLayerTableRecord
  2
233
 70
     0
 62
     7
  6
Continuous
290
     1
370
    -3
390
1F
  0
LAYER
  5
B6
100
AcDbSymbolTableRecord
100
AcDbLayerTableRecord
  2
234
 70
     0
 62
     7
  6
Continuous
290
     1
370
    -3
390
1F
  0
LAYER
  5
B7
100
AcDbSymbolTableRecord
100
AcDbLayerTableRecord
  2
235
 70
     0
 62
     7
  6
Continuous
290
     1
370
    -3
390
1F
  0
LAYER
  5
B8
100
AcDbSymbolTableRecord
100
AcDbLayerTableRecord
  2
236
 70
     0
 62
     7
  6
Continuous
290
     1
370
    -3
390
1F
  0
LAYER
  5
B9
100
AcDbSymbolTableRecord
100
AcDbLayerTableRecord
  2
237
 70
     0
 62
     7
  6
Continuous
290
     1
370
    -3
390
1F
  0
LAYER
  5
BA
100
AcDbSymbolTableRecord
100
AcDbLayerTableRecord
  2
1000
 70
     0
 62
     6
  6
Continuous
290
     1
370
    -3
390
1F
  0
LAYER
  5
BB
100
AcDbSymbolTableRecord
100
AcDbLayerTableRecord
  2
1001
 70
     0
 62
     7
  6
Continuous
290
     1
370
    -3
390
1F
  0
LAYER
  5
BC
100
AcDbSymbolTableRecord
100
AcDbLayerTableRecord
  2
11001
 70
     0
 62
     7
  6
Continuous
290
     1
370
    -3
390
1F
  0
LAYER
  5
BD
100
AcDbSymbolTableRecord
100
AcDbLayerTableRecord
  2
50103000
 70
     0
 62
     7
  6
Continuous
290
     1
370
    -3
390
1F
  0
LAYER
  5
BE
100
AcDbSymbolTableRecord
100
AcDbLayerTableRecord
  2
50103001
 70
     0
 62
     7
  6
Continuous
290
     1
370
    -3
390
1F
  0
LAYER
  5
BF
100
AcDbSymbolTableRecord
100
AcDbLayerTableRecord
  2
50103002
 70
     0
 62
     2
  6
Continuous
290
     1
370
    -3
390
1F
  0
LAYER
  5
C0
100
AcDbSymbolTableRecord
100
AcDbLayerTableRecord
  2
50103003
 70
     0
 62
     1
  6
Continuous
290
     1
370
    -3
390
1F
  0
LAYER
  5
C1
100
AcDbSymbolTableRecord
100
AcDbLayerTableRecord
  2
50103004
 70
     0
 62
     2
  6
Continuous
290
     1
370
    -3
390
1F
  0
LAYER
  5
C2
100
AcDbSymbolTableRecord
100
AcDbLayerTableRecord
  2
50103006
 70
     0
 62
     3
  6
Continuous
290
     1
370
    -3
390
1F
  0
LAYER
  5
C3
100
AcDbSymbolTableRecord
100
AcDbLayerTableRecord
  2
50103007
 70
     0
 62
     4
  6
Continuous
290
     1
370
    -3
390
1F
  0
LAYER
  5
C4
100
AcDbSymbolTableRecord
100
AcDbLayerTableRecord
  2
50103008
 70
     0
 62
     7
  6
Continuous
290
     1
370
    -3
390
1F
  0
LAYER
  5
C5
100
AcDbSymbolTableRecord
100
AcDbLayerTableRecord
  2
50103011
 70
     0
 62
     5
  6
Continuous
290
     1
370
    -3
390
1F
  0
LAYER
  5
C6
100
AcDbSymbolTableRecord
100
AcDbLayerTableRecord
  2
50103012
 70
     0
 62
     7
  6
Continuous
290
     1
370
    -3
390
1F
  0
LAYER
  5
C7
100
AcDbSymbolTableRecord
100
AcDbLayerTableRecord
  2
50103013
 70
     0
 62
     7
  6
Continuous
290
     1
370
    -3
390
1F
  0
LAYER
  5
C8
100
AcDbSymbolTableRecord
100
AcDbLayerTableRecord
  2
50103014
 70
     0
 62
     7
  6
Continuous
290
     1
370
    -3
390
1F
  0
LAYER
  5
C9
100
AcDbSymbolTableRecord
100
AcDbLayerTableRecord
  2
50103015
 70
     0
 62
     1
  6
Continuous
290
     1
370
    -3
390
1F
  0
LAYER
  5
CA
100
AcDbSymbolTableRecord
100
AcDbLayerTableRecord
  2
50103016
 70
     0
 62
     3
  6
Continuous
290
     1
370
    -3
390
1F
  0
LAYER
  5
CB
100
AcDbSymbolTableRecord
100
AcDbLayerTableRecord
  2
50103017
 70
     0
 62
     6
  6
Continuous
290
     1
370
    -3
390
1F
  0
LAYER
  5
CC
100
AcDbSymbolTableRecord
100
AcDbLayerTableRecord
  2
50103018
 70
     0
 62
     2
  6
Continuous
290
     1
370
    -3
390
1F
  0
LAYER
  5
CD
100
AcDbSymbolTableRecord
100
AcDbLayerTableRecord
  2
50103019
 70
     0
 62
     5
  6
Continuous
290
     1
370
    -3
390
1F
  0
LAYER
  5
CE
100
AcDbSymbolTableRecord
100
AcDbLayerTableRecord
  2
50103020
 70
     0
 62
     4
  6
Continuous
290
     1
370
    -3
390
1F
  0
LAYER
  5
CF
100
AcDbSymbolTableRecord
100
AcDbLayerTableRecord
  2
50103021
 70
     0
 62
     3
  6
Continuous
290
     1
370
    -3
390
1F
  0
LAYER
  5
D0
100
AcDbSymbolTableRecord
100
AcDbLayerTableRecord
  2
50103022
 70
     0
 62
     6
  6
Continuous
290
     1
370
    -3
390
1F
  0
LAYER
  5
D1
100
AcDbSymbolTableRecord
100
AcDbLayerTableRecord
  2
50103023
 70
     0
 62
     2
  6
Continuous
290
     1
370
    -3
390
1F
  0
LAYER
  5
D2
100
AcDbSymbolTableRecord
100
AcDbLayerTableRecord
  2
50103024
 70
     0
 62
     7
  6
Continuous
290
     1
370
    -3
390
1F
  0
LAYER
  5
D3
100
AcDbSymbolTableRecord
100
AcDbLayerTableRecord
  2
50103025
 70
     0
 62
     4
  6
Continuous
290
     1
370
    -3
390
1F
  0
LAYER
  5
D4
100
AcDbSymbolTableRecord
100
AcDbLayerTableRecord
  2
50103026
 70
     0
 62
     3
  6
Continuous
290
     1
370
    -3
390
1F
  0
LAYER
  5
D5
100
AcDbSymbolTableRecord
100
AcDbLayerTableRecord
  2
50103027
 70
     0
 62
     6
  6
Continuous
290
     1
370
    -3
390
1F
  0
LAYER
  5
D6
100
AcDbSymbolTableRecord
100
AcDbLayerTableRecord
  2
50103028
 70
     0
 62
     2
  6
Continuous
290
     1
370
    -3
390
1F
  0
LAYER
  5
D7
100
AcDbSymbolTableRecord
100
AcDbLayerTableRecord
  2
50103029
 70
     0
 62
     7
  6
Continuous
290
     1
370
    -3
390
1F
  0
LAYER
  5
D8
100
AcDbSymbolTableRecord
100
AcDbLayerTableRecord
  2
50103030
 70
     0
 62
     4
  6
Continuous
290
     1
370
    -3
390
1F
  0
LAYER
  5
D9
100
AcDbSymbolTableRecord
100
AcDbLayerTableRecord
  2
50103031
 70
     0
 62
     3
  6
Continuous
290
     1
370
    -3
390
1F
  0
LAYER
  5
DA
100
AcDbSymbolTableRecord
100
AcDbLayerTableRecord
  2
50103032
 70
     0
 62
     6
  6
Continuous
290
     1
370
    -3
390
1F
  0
LAYER
  5
DB
100
AcDbSymbolTableRecord
100
AcDbLayerTableRecord
  2
50103033
 70
     0
 62
     2
  6
Continuous
290
     1
370
    -3
390
1F
  0
LAYER
  5
DC
100
AcDbSymbolTableRecord
100
AcDbLayerTableRecord
  2
50103034
 70
     0
 62
     7
  6
Continuous
290
     1
370
    -3
390
1F
  0
LAYER
  5
DD
100
AcDbSymbolTableRecord
100
AcDbLayerTableRecord
  2
50103035
 70
     0
 62
     7
  6
Continuous
290
     1
370
    -3
390
1F
  0
LAYER
  5
DE
100
AcDbSymbolTableRecord
100
AcDbLayerTableRecord
  2
50103036
 70
     0
 62
     7
  6
Continuous
290
     1
370
    -3
390
1F
  0
LAYER
  5
DF
100
AcDbSymbolTableRecord
100
AcDbLayerTableRecord
  2
50103037
 70
     0
 62
     7
  6
Continuous
290
     1
370
    -3
390
1F
  0
ENDTAB
  0
TABLE
  2
STYLE
  5
3
100
AcDbSymbolTable
 70
     1
  0
STYLE
  5
17
100
AcDbSymbolTableRecord
100
AcDbTextStyleTableRecord
  2
Standard
 70
     0
 40
0.0
 41
1.0
 50
0.0
 71
     0
 42
0.0
  3
txt
  4
bigfont
  0
ENDTAB
  0
TABLE
  2
VIEW
  5
5
100
AcDbSymbolTable
 70
     0
  0
ENDTAB
  0
TABLE
  2
UCS
  5
6
100
AcDbSymbolTable
 70
     0
  0
ENDTAB
  0
TABLE
  2
APPID
  5
8
100
AcDbSymbolTable
 70
     1
  0
APPID
  5
16
100
AcDbSymbolTableRecord
100
AcDbRegAppTableRecord
  2
ACAD
 70
     0
  0
ENDTAB
  0
TABLE
  2
DIMSTYLE
  5
9
100
AcDbSymbolTable
 70
     1
100
AcDbDimStyleTable
 71
     0
  0
DIMSTYLE
105
18
100
AcDbSymbolTableRecord
100
AcDbDimStyleTableRecord
  2
Standard
 70
     0
  3

  4

 40
1.0
 41
0.18
 42
0.0625
 43
0.38
 44
0.18
 45
0.0
 46
0.0
 47
0.0
 48
0.0
 71
     0
 72
     0
 73
     1
 74
     1
 75
     0
 76
     0
 77
     0
 78
     0
 79
     0
140
0.18
141
0.09
142
0.0
143
25.4
144
1.0
145
0.0
146
1.0
147
0.09
148
0.0
170
     0
171
     2
172
     0
173
     0
174
     0
175
     0
176
     0
177
     0
178
     0
179
     0
271
     4
272
     4
273
     2
274
     2
275
     0
276
     0
277
     2
278
    46
279
     0
280
     0
281
     0
282
     0
283
     1
284
     0
285
     0
286
     0
288
     0
340
17
341
0
342
0
343
0
344
0
371
    -2
372
    -2
  0
ENDTAB
  0
TABLE
  2
BLOCK_RECORD
  5
1
100
AcDbSymbolTable
 70
     0
  0
BLOCK_RECORD
  5
A
100
AcDbSymbolTableRecord
100
AcDbBlockTableRecord
  2
*MODEL_SPACE
340
20
  0
BLOCK_RECORD
  5
B
100
AcDbSymbolTableRecord
100
AcDbBlockTableRecord
  2
*PAPER_SPACE
340
21
  0
ENDTAB
  0
ENDSEC
  0
SECTION
  2
BLOCKS
  0
BLOCK
  5
D
100
AcDbEntity
  8
0
100
AcDbBlockBegin
  2
*MODEL_SPACE
 70
     0
 10
0.0
 20
0.0
 30
0.0
  3
*MODEL_SPACE
  1

  0
ENDBLK
  5
E
100
AcDbEntity
  8
0
100
AcDbBlockEnd
  0
BLOCK
  5
F
100
AcDbEntity
 67
     1
  8
0
100
AcDbBlockBegin
  2
*PAPER_SPACE
 70
     0
 10
0.0
 20
0.0
 30
0.0
  3
*PAPER_SPACE
  1

  0
ENDBLK
  5
10
100
AcDbEntity
 67
     1
  8
0
100
AcDbBlockEnd
  0
ENDSEC
  0
SECTION
  2
ENTITIES
  0
CIRCLE
  5
E0
100
AcDbEntity
  8
2
  6
Continuous
 62
   174
100
AcDbCircle
 10
300.0
 20
688.766113
 30
0.0
 40
72.5
  0
CIRCLE
  5
E1
100
AcDbEntity
  8
2
  6
Continuous
 62
   174
100
AcDbCircle
 10
300.0
 20
688.766113
 30
0.0
 40
56.5
  0
CIRCLE
  5
E2
100
AcDbEntity
  8
2
  6
Continuous
 62
   174
100
AcDbCircle
 10
358.33631
 20
630.429804
 30
0.0
 40
9.5
  0
CIRCLE
  5
E3
100
AcDbEntity
  8
2
  6
Continuous
 62
   174
100
AcDbCircle
 10
300.0
 20
606.266114
 30
0.0
 40
9.5
  0
CIRCLE
  5
E4
100
AcDbEntity
  8
2
  6
Continuous
 62
   174
100
AcDbCircle
 10
241.663691
 20
630.429804
 30
0.0
 40
9.5
  0
CIRCLE
  5
E5
100
AcDbEntity
  8
2
  6
Continuous
 62
   174
100
AcDbCircle
 10
217.5
 20
688.766114
 30
0.0
 40
9.5
  0
CIRCLE
  5
E6
100
AcDbEntity
  8
2
  6
Continuous
 62
   174
100
AcDbCircle
 10
241.663691
 20
747.102423
 30
0.0
 40
9.5
  0
CIRCLE
  5
E7
100
AcDbEntity
  8
2
  6
Continuous
 62
   174
100
AcDbCircle
 10
300.0
 20
771.266114
 30
0.0
 40
9.5
  0
CIRCLE
  5
E8
100
AcDbEntity
  8
2
  6
Continuous
 62
   174
100
AcDbCircle
 10
358.33631
 20
747.102423
 30
0.0
 40
9.5
  0
CIRCLE
  5
E9
100
AcDbEntity
  8
2
  6
Continuous
 62
   174
100
AcDbCircle
 10
382.5
 20
688.766113
 30
0.0
 40
9.5
  0
CIRCLE
  5
EA
100
AcDbEntity
  8
2
  6
Continuous
 62
   174
100
AcDbCircle
 10
300.0
 20
688.766113
 30
0.0
 40
100.0
  0
LINE
  5
EB
100
AcDbEntity
  8
2
  6
CENTER
 62
   174
100
AcDbLine
 10
233.178409
 20
621.944522
 30
0.0
 11
250.148972
 21
638.915085
 31
0.0
  0
LINE
  5
EC
100
AcDbEntity
  8
2
  6
CENTER
 62
   174
100
AcDbLine
 10
366.821591
 20
621.944523
 30
0.0
 11
349.851028
 21
638.915085
 31
0.0
  0
LINE
  5
ED
100
AcDbEntity
  8
2
  6
CENTER
 62
   174
100
AcDbLine
 10
366.821591
 20
755.587704
 30
0.0
 11
349.851028
 21
738.617141
 31
0.0
  0
LINE
  5
EE
100
AcDbEntity
  8
2
  6
CENTER
 62
   174
100
AcDbLine
 10
233.178409
 20
755.587704
 30
0.0
 11
250.148972
 21
738.617142
 31
0.0
  0
LINE
  5
EF
100
AcDbEntity
  8
2
  6
CENTER
 62
   174
100
AcDbLine
 10
190.0
 20
688.766113
 30
0.0
 11
410.0
 21
688.766113
 31
0.0
  0
LINE
  5
F0
100
AcDbEntity
  8
2
  6
CENTER
 62
   174
100
AcDbLine
 10
300.0
 20
798.766113
 30
0.0
 11
300.0
 21
578.766113
 31
0.0
  0
CIRCLE
  5
F1
100
AcDbEntity
  8
2
  6
CENTER
 62
   174
100
AcDbCircle
 10
300.0
 20
688.766113
 30
0.0
 40
82.5
  0
LINE
  5
F2
100
AcDbEntity
  8
2
  6
Continuous
 62
   174
100
AcDbLine
 10
227.5
 20
303.0
 30
0.0
 11
300.0
 21
303.0
 31
0.0
  0
CIRCLE
  5
F3
100
AcDbEntity
  8
2
  6
Continuous
 62
   174
100
AcDbCircle
 10
300.0
 20
688.766113
 30
0.0
 40
55.2
  0
LINE
  5
F4
100
AcDbEntity
  8
2
  6
Continuous
 62
   174
100
AcDbLine
 10
227.5
 20
306.6
 30
0.0
 11
227.5
 21
300.0
 31
0.0
  0
LINE
  5
F5
100
AcDbEntity
  8
2
  6
Continuous
 62
   174
100
AcDbLine
 10
300.0
 20
304.3
 30
0.0
 11
227.5
 21
304.3
 31
0.0
  0
LINE
  5
F6
100
AcDbEntity
  8
2
  6
Continuous
 62
   174
100
AcDbLine
 10
300.0
 20
306.6
 30
0.0
 11
200.0
 21
306.6
 31
0.0
  0
LINE
  5
F7
100
AcDbEntity
  8
2
  6
Continuous
 62
   174
100
AcDbLine
 10
200.0
 20
306.6
 30
0.0
 11
200.0
 21
322.6
 31
0.0
  0
LINE
  5
F8
100
AcDbEntity
  8
2
  6
Continuous
 62
   174
100
AcDbLine
 10
200.0
 20
322.6
 30
0.0
 11
300.0
 21
322.6
 31
0.0
  0
LINE
  5
F9
100
AcDbEntity
  8
2
  6
CENTER
 62
   174
100
AcDbLine
 10
217.5
 20
332.6
 30
0.0
 11
217.5
 21
296.6
 31
0.0
  0
LINE
  5
FA
100
AcDbEntity
  8
2
  6
CENTER
 62
   174
100
AcDbLine
 10
217.5
 20
332.6
 30
0.0
 11
217.5
 21
296.6
 31
0.0
  0
LINE
  5
FB
100
AcDbEntity
  8
2
  6
HIDDEN
 62
   174
100
AcDbLine
 10
227.0
 20
322.6
 30
0.0
 11
227.0
 21
306.6
 31
0.0
  0
LINE
  5
FC
100
AcDbEntity
  8
2
  6
HIDDEN
 62
   174
100
AcDbLine
 10
208.0
 20
322.6
 30
0.0
 11
208.0
 21
306.6
 31
0.0
  0
LINE
  5
FD
100
AcDbEntity
  8
2
  6
Continuous
 62
   174
100
AcDbLine
 10
300.0
 20
465.7
 30
0.0
 11
200.0
 21
465.7
 31
0.0
  0
LINE
  5
FE
100
AcDbEntity
  8
2
  6
Continuous
 62
   174
100
AcDbLine
 10
200.0
 20
465.7
 30
0.0
 11
200.0
 21
449.7
 31
0.0
  0
LINE
  5
FF
100
AcDbEntity
  8
2
  6
Continuous
 62
   174
100
AcDbLine
 10
200.0
 20
449.7
 30
0.0
 11
300.0
 21
449.7
 31
0.0
  0
LINE
  5
100
100
AcDbEntity
  8
2
  6
CENTER
 62
   174
100
AcDbLine
 10
217.5
 20
439.7
 30
0.0
 11
217.5
 21
475.7
 31
0.0
  0
LINE
  5
101
100
AcDbEntity
  8
2
  6
HIDDEN
 62
   174
100
AcDbLine
 10
227.0
 20
449.7
 30
0.0
 11
227.0
 21
465.7
 31
0.0
  0
LINE
  5
102
100
AcDbEntity
  8
2
  6
HIDDEN
 62
   174
100
AcDbLine
 10
208.0
 20
449.7
 30
0.0
 11
208.0
 21
465.7
 31
0.0
  0
LINE
  5
103
100
AcDbEntity
  8
2
  6
CENTER
 62
   174
100
AcDbLine
 10
300.0
 20
480.0
 30
0.0
 11
300.0
 21
282.89
 31
0.0
  0
LINE
  5
104
100
AcDbEntity
  8
2
  6
Continuous
 62
   174
100
AcDbLine
 10
227.5
 20
465.7
 30
0.0
 11
227.5
 21
470.0
 31
0.0
  0
LINE
  5
105
100
AcDbEntity
  8
2
  6
Continuous
 62
   174
100
AcDbLine
 10
227.5
 20
467.0
 30
0.0
 11
300.0
 21
467.0
 31
0.0
  0
LINE
  5
106
100
AcDbEntity
  8
2
  6
CENTER
 62
   174
100
AcDbLine
 10
229.0
 20
449.7
 30
0.0
 11
229.0
 21
322.6
 31
0.0
  0
LINE
  5
107
100
AcDbEntity
  8
2
  6
CENTER
 62
   174
100
AcDbLine
 10
233.0
 20
354.41
 30
0.0
 11
243.0
 21
354.41
 31
0.0
  0
LINE
  5
108
100
AcDbEntity
  8
2
  6
Continuous
 62
   174
100
AcDbLine
 10
243.114549
 20
323.523905
 30
0.0
 11
235.678452
 21
330.884704
 31
0.0
  0
ARC
  5
109
100
AcDbEntity
  8
2
  6
Continuous
 62
   174
100
AcDbCircle
 10
242.2
 20
322.6
 30
0.0
 40
1.3
100
AcDbArc
 50
0.0
 51
45.292514
  0
ARC
  5
10A
100
AcDbEntity
  8
2
  6
Continuous
 62
   174
100
AcDbCircle
 10
238.0
 20
333.23
 30
0.0
 40
3.3
100
AcDbArc
 50
137.567524
 51
-134.807852
  0
ARC
  5
10B
100
AcDbEntity
  8
2
  6
Continuous
 62
   174
100
AcDbCircle
 10
238.0
 20
354.41
 30
0.0
 40
3.3
100
AcDbArc
 50
137.568194
 51
-137.567661
  0
LINE
  5
10C
100
AcDbEntity
  8
2
  6
Continuous
 62
   174
100
AcDbLine
 10
243.114549
 20
448.776095
 30
0.0
 11
235.678452
 21
441.415296
 31
0.0
  0
ARC
  5
10D
100
AcDbEntity
  8
2
  6
Continuous
 62
   174
100
AcDbCircle
 10
242.2
 20
449.7
 30
0.0
 40
1.3
100
AcDbArc
 50
-45.292514
 51
0.0
  0
ARC
  5
10E
100
AcDbEntity
  8
2
  6
Continuous
 62
   174
100
AcDbCircle
 10
238.0
 20
439.07
 30
0.0
 40
3.3
100
AcDbArc
 50
134.807852
 51
-137.567524
  0
ARC
  5
10F
100
AcDbEntity
  8
2
  6
Continuous
 62
   174
100
AcDbCircle
 10
238.0
 20
417.89
 30
0.0
 40
3.3
100
AcDbArc
 50
137.567661
 51
-137.568194
  0
LINE
  5
110
100
AcDbEntity
  8
2
  6
CENTER
 62
   174
100
AcDbLine
 10
234.7
 20
417.89
 30
0.0
 11
234.7
 21
354.41
 31
0.0
  0
LINE
  5
111
100
AcDbEntity
  8
2
  6
Continuous
 62
   174
100
AcDbLine
 10
238.0
 20
439.07
 30
0.0
 11
300.0
 21
439.07
 31
0.0
  0
LINE
  5
112
100
AcDbEntity
  8
2
  6
Continuous
 62
   174
100
AcDbLine
 10
240.5
 20
430.48
 30
0.0
 11
300.0
 21
430.48
 31
0.0
  0
LINE
  5
113
100
AcDbEntity
  8
2
  6
Continuous
 62
   174
100
AcDbLine
 10
240.5
 20
426.48
 30
0.0
 11
300.0
 21
426.48
 31
0.0
  0
LINE
  5
114
100
AcDbEntity
  8
2
  6
Continuous
 62
   174
100
AcDbLine
 10
238.0
 20
417.89
 30
0.0
 11
300.0
 21
417.89
 31
0.0
  0
LINE
  5
115
100
AcDbEntity
  8
2
  6
Continuous
 62
   174
100
AcDbLine
 10
240.5
 20
409.3
 30
0.0
 11
300.0
 21
409.3
 31
0.0
  0
LINE
  5
116
100
AcDbEntity
  8
2
  6
Continuous
 62
   174
100
AcDbLine
 10
240.5
 20
405.3
 30
0.0
 11
300.0
 21
405.3
 31
0.0
  0
LINE
  5
117
100
AcDbEntity
  8
2
  6
Continuous
 62
   174
100
AcDbLine
 10
240.5
 20
367.0
 30
0.0
 11
300.0
 21
367.0
 31
0.0
  0
LINE
  5
118
100
AcDbEntity
  8
2
  6
Continuous
 62
   174
100
AcDbLine
 10
240.5
 20
363.0
 30
0.0
 11
300.0
 21
363.0
 31
0.0
  0
LINE
  5
119
100
AcDbEntity
  8
2
  6
Continuous
 62
   174
100
AcDbLine
 10
238.0
 20
354.41
 30
0.0
 11
300.0
 21
354.41
 31
0.0
  0
LINE
  5
11A
100
AcDbEntity
  8
2
  6
Continuous
 62
   174
100
AcDbLine
 10
240.5
 20
345.82
 30
0.0
 11
300.0
 21
345.82
 31
0.0
  0
LINE
  5
11B
100
AcDbEntity
  8
2
  6
Continuous
 62
   174
100
AcDbLine
 10
240.5
 20
341.82
 30
0.0
 11
300.0
 21
341.82
 31
0.0
  0
LINE
  5
11C
100
AcDbEntity
  8
2
  6
Continuous
 62
   174
100
AcDbLine
 10
238.0
 20
333.23
 30
0.0
 11
300.0
 21
333.23
 31
0.0
  0
ARC
  5
11D
100
AcDbEntity
  8
2
  6
Continuous
 62
   174
100
AcDbCircle
 10
240.5
 20
343.82
 30
0.0
 40
2.0
100
AcDbArc
 50
90.0
 51
-90.0
  0
LINE
  5
11E
100
AcDbEntity
  8
2
  6
Continuous
 62
   174
100
AcDbLine
 10
241.381442
 20
345.82
 30
0.0
 11
235.564333
 21
352.18345
 31
0.0
  0
LINE
  5
11F
100
AcDbEntity
  8
2
  6
Continuous
 62
   174
100
AcDbLine
 10
241.381442
 20
341.82
 30
0.0
 11
235.564333
 21
335.45655
 31
0.0
  0
ARC
  5
120
100
AcDbEntity
  8
2
  6
Continuous
 62
   174
100
AcDbCircle
 10
240.5
 20
365.0
 30
0.0
 40
2.0
100
AcDbArc
 50
90.0
 51
-90.0
  0
LINE
  5
121
100
AcDbEntity
  8
2
  6
Continuous
 62
   174
100
AcDbLine
 10
238.369338
 20
370.295
 30
0.0
 11
241.381442
 21
367.0
 31
0.0
  0
LINE
  5
122
100
AcDbEntity
  8
2
  6
Continuous
 62
   174
100
AcDbLine
 10
241.381442
 20
363.0
 30
0.0
 11
235.564333
 21
356.63655
 31
0.0
  0
LINE
  5
123
100
AcDbEntity
  8
2
  6
CENTER
 62
   174
100
AcDbLine
 10
235.5
 20
365.0
 30
0.0
 11
300.0
 21
365.0
 31
0.0
  0
LINE
  5
124
100
AcDbEntity
  8
2
  6
CENTER
 62
   174
100
AcDbLine
 10
235.5
 20
343.82
 30
0.0
 11
300.0
 21
343.82
 31
0.0
  0
LINE
  5
125
100
AcDbEntity
  8
2
  6
CENTER
 62
   174
100
AcDbLine
 10
235.5
 20
407.3
 30
0.0
 11
300.0
 21
407.3
 31
0.0
  0
ARC
  5
126
100
AcDbEntity
  8
2
  6
Continuous
 62
   174
100
AcDbCircle
 10
240.5
 20
407.3
 30
0.0
 40
2.0
100
AcDbArc
 50
90.0
 51
-90.0
  0
LINE
  5
127
100
AcDbEntity
  8
2
  6
Continuous
 62
   174
100
AcDbLine
 10
238.369338
 20
402.005
 30
0.0
 11
241.381442
 21
405.3
 31
0.0
  0
LINE
  5
128
100
AcDbEntity
  8
2
  6
Continuous
 62
   174
100
AcDbLine
 10
241.381442
 20
409.3
 30
0.0
 11
235.564333
 21
415.66345
 31
0.0
  0
LINE
  5
129
100
AcDbEntity
  8
2
  6
CENTER
 62
   174
100
AcDbLine
 10
235.5
 20
428.48
 30
0.0
 11
300.0
 21
428.48
 31
0.0
  0
ARC
  5
12A
100
AcDbEntity
  8
2
  6
Continuous
 62
   174
100
AcDbCircle
 10
240.5
 20
428.48
 30
0.0
 40
2.0
100
AcDbArc
 50
90.0
 51
-90.0
  0
LINE
  5
12B
100
AcDbEntity
  8
2
  6
Continuous
 62
   174
100
AcDbLine
 10
241.381442
 20
430.48
 30
0.0
 11
235.564333
 21
436.84345
 31
0.0
  0
LINE
  5
12C
100
AcDbEntity
  8
2
  6
Continuous
 62
   174
100
AcDbLine
 10
241.381442
 20
426.48
 30
0.0
 11
235.564333
 21
420.11655
 31
0.0
  0
LINE
  5
12D
100
AcDbEntity
  8
2
  6
Continuous
 62
   174
100
AcDbLine
 10
527.5
 20
303.0
 30
0.0
 11
600.0
 21
303.0
 31
0.0
  0
LINE
  5
12E
100
AcDbEntity
  8
2
  6
Continuous
 62
   174
100
AcDbLine
 10
527.5
 20
306.6
 30
0.0
 11
527.5
 21
300.0
 31
0.0
  0
LINE
  5
12F
100
AcDbEntity
  8
2
  6
Continuous
 62
   174
100
AcDbLine
 10
600.0
 20
304.3
 30
0.0
 11
527.5
 21
304.3
 31
0.0
  0
LINE
  5
130
100
AcDbEntity
  8
2
  6
Continuous
 62
   174
100
AcDbLine
 10
600.0
 20
306.6
 30
0.0
 11
500.0
 21
306.6
 31
0.0
  0
LINE
  5
131
100
AcDbEntity
  8
2
  6
Continuous
 62
   174
100
AcDbLine
 10
500.0
 20
306.6
 30
0.0
 11
500.0
 21
322.6
 31
0.0
  0
LINE
  5
132
100
AcDbEntity
  8
2
  6
Continuous
 62
   174
100
AcDbLine
 10
500.0
 20
322.6
 30
0.0
 11
600.0
 21
322.6
 31
0.0
  0
LINE
  5
133
100
AcDbEntity
  8
2
  6
CENTER
 62
   174
100
AcDbLine
 10
517.5
 20
332.6
 30
0.0
 11
517.5
 21
296.6
 31
0.0
  0
LINE
  5
134
100
AcDbEntity
  8
2
  6
CENTER
 62
   174
100
AcDbLine
 10
517.5
 20
332.6
 30
0.0
 11
517.5
 21
296.6
 31
0.0
  0
LINE
  5
135
100
AcDbEntity
  8
2
  6
HIDDEN
 62
   174
100
AcDbLine
 10
527.0
 20
322.6
 30
0.0
 11
527.0
 21
306.6
 31
0.0
  0
LINE
  5
136
100
AcDbEntity
  8
2
  6
HIDDEN
 62
   174
100
AcDbLine
 10
508.0
 20
322.6
 30
0.0
 11
508.0
 21
306.6
 31
0.0
  0
LINE
  5
137
100
AcDbEntity
  8
2
  6
CENTER
 62
   174
100
AcDbLine
 10
533.0
 20
354.41
 30
0.0
 11
543.0
 21
354.41
 31
0.0
  0
LINE
  5
138
100
AcDbEntity
  8
2
  6
Continuous
 62
   174
100
AcDbLine
 10
543.114549
 20
323.523905
 30
0.0
 11
535.678452
 21
330.884704
 31
0.0
  0
ARC
  5
139
100
AcDbEntity
  8
2
  6
Continuous
 62
   174
100
AcDbCircle
 10
542.2
 20
322.6
 30
0.0
 40
1.3
100
AcDbArc
 50
0.0
 51
45.292514
  0
ARC
  5
13A
100
AcDbEntity
  8
2
  6
Continuous
 62
   174
100
AcDbCircle
 10
538.0
 20
333.23
 30
0.0
 40
3.3
100
AcDbArc
 50
137.567524
 51
-134.807852
  0
ARC
  5
13B
100
AcDbEntity
  8
2
  6
Continuous
 62
   174
100
AcDbCircle
 10
538.0
 20
354.41
 30
0.0
 40
3.3
100
AcDbArc
 50
137.568194
 51
-137.567661
  0
LINE
  5
13C
100
AcDbEntity
  8
2
  6
Continuous
 62
   174
100
AcDbLine
 10
540.5
 20
367.0
 30
0.0
 11
600.0
 21
367.0
 31
0.0
  0
LINE
  5
13D
100
AcDbEntity
  8
2
  6
Continuous
 62
   174
100
AcDbLine
 10
540.5
 20
363.0
 30
0.0
 11
600.0
 21
363.0
 31
0.0
  0
LINE
  5
13E
100
AcDbEntity
  8
2
  6
Continuous
 62
   174
100
AcDbLine
 10
538.0
 20
354.41
 30
0.0
 11
600.0
 21
354.41
 31
0.0
  0
LINE
  5
13F
100
AcDbEntity
  8
2
  6
Continuous
 62
   174
100
AcDbLine
 10
540.5
 20
345.82
 30
0.0
 11
600.0
 21
345.82
 31
0.0
  0
LINE
  5
140
100
AcDbEntity
  8
2
  6
Continuous
 62
   174
100
AcDbLine
 10
540.5
 20
341.82
 30
0.0
 11
600.0
 21
341.82
 31
0.0
  0
LINE
  5
141
100
AcDbEntity
  8
2
  6
Continuous
 62
   174
100
AcDbLine
 10
538.0
 20
333.23
 30
0.0
 11
600.0
 21
333.23
 31
0.0
  0
ARC
  5
142
100
AcDbEntity
  8
2
  6
Continuous
 62
   174
100
AcDbCircle
 10
540.5
 20
343.82
 30
0.0
 40
2.0
100
AcDbArc
 50
90.0
 51
-90.0
  0
LINE
  5
143
100
AcDbEntity
  8
2
  6
Continuous
 62
   174
100
AcDbLine
 10
541.381442
 20
345.82
 30
0.0
 11
535.564333
 21
352.18345
 31
0.0
  0
LINE
  5
144
100
AcDbEntity
  8
2
  6
Continuous
 62
   174
100
AcDbLine
 10
541.381442
 20
341.82
 30
0.0
 11
535.564333
 21
335.45655
 31
0.0
  0
ARC
  5
145
100
AcDbEntity
  8
2
  6
Continuous
 62
   174
100
AcDbCircle
 10
540.5
 20
365.0
 30
0.0
 40
2.0
100
AcDbArc
 50
90.0
 51
-90.0
  0
LINE
  5
146
100
AcDbEntity
  8
2
  6
Continuous
 62
   174
100
AcDbLine
 10
538.369338
 20
370.295
 30
0.0
 11
541.381442
 21
367.0
 31
0.0
  0
LINE
  5
147
100
AcDbEntity
  8
2
  6
Continuous
 62
   174
100
AcDbLine
 10
541.381442
 20
363.0
 30
0.0
 11
535.564333
 21
356.63655
 31
0.0
  0
LINE
  5
148
100
AcDbEntity
  8
2
  6
CENTER
 62
   174
100
AcDbLine
 10
535.5
 20
365.0
 30
0.0
 11
600.0
 21
365.0
 31
0.0
  0
LINE
  5
149
100
AcDbEntity
  8
2
  6
CENTER
 62
   174
100
AcDbLine
 10
535.5
 20
343.82
 30
0.0
 11
600.0
 21
343.82
 31
0.0
  0
LINE
  5
14A
100
AcDbEntity
  8
2
  6
Continuous
 62
   174
100
AcDbLine
 10
827.5
 20
303.0
 30
0.0
 11
900.0
 21
303.0
 31
0.0
  0
LINE
  5
14B
100
AcDbEntity
  8
2
  6
Continuous
 62
   174
100
AcDbLine
 10
827.5
 20
306.6
 30
0.0
 11
827.5
 21
300.0
 31
0.0
  0
LINE
  5
14C
100
AcDbEntity
  8
2
  6
Continuous
 62
   174
100
AcDbLine
 10
900.0
 20
304.3
 30
0.0
 11
827.5
 21
304.3
 31
0.0
  0
LINE
  5
14D
100
AcDbEntity
  8
2
  6
Continuous
 62
   174
100
AcDbLine
 10
900.0
 20
306.6
 30
0.0
 11
800.0
 21
306.6
 31
0.0
  0
LINE
  5
14E
100
AcDbEntity
  8
2
  6
Continuous
 62
   174
100
AcDbLine
 10
800.0
 20
306.6
 30
0.0
 11
800.0
 21
322.6
 31
0.0
  0
LINE
  5
14F
100
AcDbEntity
  8
2
  6
Continuous
 62
   174
100
AcDbLine
 10
800.0
 20
322.6
 30
0.0
 11
900.0
 21
322.6
 31
0.0
  0
LINE
  5
150
100
AcDbEntity
  8
2
  6
CENTER
 62
   174
100
AcDbLine
 10
817.5
 20
332.6
 30
0.0
 11
817.5
 21
296.6
 31
0.0
  0
LINE
  5
151
100
AcDbEntity
  8
2
  6
CENTER
 62
   174
100
AcDbLine
 10
817.5
 20
332.6
 30
0.0
 11
817.5
 21
296.6
 31
0.0
  0
LINE
  5
152
100
AcDbEntity
  8
2
  6
HIDDEN
 62
   174
100
AcDbLine
 10
827.0
 20
322.6
 30
0.0
 11
827.0
 21
306.6
 31
0.0
  0
LINE
  5
153
100
AcDbEntity
  8
2
  6
HIDDEN
 62
   174
100
AcDbLine
 10
808.0
 20
322.6
 30
0.0
 11
808.0
 21
306.6
 31
0.0
  0
LINE
  5
154
100
AcDbEntity
  8
2
  6
CENTER
 62
   174
100
AcDbLine
 10
833.0
 20
354.41
 30
0.0
 11
843.0
 21
354.41
 31
0.0
  0
LINE
  5
155
100
AcDbEntity
  8
2
  6
Continuous
 62
   174
100
AcDbLine
 10
843.114549
 20
323.523905
 30
0.0
 11
835.678452
 21
330.884704
 31
0.0
  0
ARC
  5
156
100
AcDbEntity
  8
2
  6
Continuous
 62
   174
100
AcDbCircle
 10
842.2
 20
322.6
 30
0.0
 40
1.3
100
AcDbArc
 50
0.0
 51
45.292514
  0
ARC
  5
157
100
AcDbEntity
  8
2
  6
Continuous
 62
   174
100
AcDbCircle
 10
838.0
 20
333.23
 30
0.0
 40
3.3
100
AcDbArc
 50
137.567524
 51
-134.807852
  0
ARC
  5
158
100
AcDbEntity
  8
2
  6
Continuous
 62
   174
100
AcDbCircle
 10
838.0
 20
354.41
 30
0.0
 40
3.3
100
AcDbArc
 50
137.568194
 51
-137.567661
  0
LINE
  5
159
100
AcDbEntity
  8
2
  6
Continuous
 62
   174
100
AcDbLine
 10
840.5
 20
367.0
 30
0.0
 11
900.0
 21
367.0
 31
0.0
  0
LINE
  5
15A
100
AcDbEntity
  8
2
  6
Continuous
 62
   174
100
AcDbLine
 10
840.5
 20
363.0
 30
0.0
 11
900.0
 21
363.0
 31
0.0
  0
LINE
  5
15B
100
AcDbEntity
  8
2
  6
Continuous
 62
   174
100
AcDbLine
 10
838.0
 20
354.41
 30
0.0
 11
900.0
 21
354.41
 31
0.0
  0
LINE
  5
15C
100
AcDbEntity
  8
2
  6
Continuous
 62
   174
100
AcDbLine
 10
840.5
 20
345.82
 30
0.0
 11
900.0
 21
345.82
 31
0.0
  0
LINE
  5
15D
100
AcDbEntity
  8
2
  6
Continuous
 62
   174
100
AcDbLine
 10
840.5
 20
341.82
 30
0.0
 11
900.0
 21
341.82
 31
0.0
  0
LINE
  5
15E
100
AcDbEntity
  8
2
  6
Continuous
 62
   174
100
AcDbLine
 10
838.0
 20
333.23
 30
0.0
 11
900.0
 21
333.23
 31
0.0
  0
ARC
  5
15F
100
AcDbEntity
  8
2
  6
Continuous
 62
   174
100
AcDbCircle
 10
840.5
 20
343.82
 30
0.0
 40
2.0
100
AcDbArc
 50
90.0
 51
-90.0
  0
LINE
  5
160
100
AcDbEntity
  8
2
  6
Continuous
 62
   174
100
AcDbLine
 10
841.381442
 20
345.82
 30
0.0
 11
835.564333
 21
352.18345
 31
0.0
  0
LINE
  5
161
100
AcDbEntity
  8
2
  6
Continuous
 62
   174
100
AcDbLine
 10
841.381442
 20
341.82
 30
0.0
 11
835.564333
 21
335.45655
 31
0.0
  0
ARC
  5
162
100
AcDbEntity
  8
2
  6
Continuous
 62
   174
100
AcDbCircle
 10
840.5
 20
365.0
 30
0.0
 40
2.0
100
AcDbArc
 50
90.0
 51
-90.0
  0
LINE
  5
163
100
AcDbEntity
  8
2
  6
Continuous
 62
   174
100
AcDbLine
 10
838.369338
 20
370.295
 30
0.0
 11
841.381442
 21
367.0
 31
0.0
  0
LINE
  5
164
100
AcDbEntity
  8
2
  6
Continuous
 62
   174
100
AcDbLine
 10
841.381442
 20
363.0
 30
0.0
 11
835.564333
 21
356.63655
 31
0.0
  0
LINE
  5
165
100
AcDbEntity
  8
2
  6
CENTER
 62
   174
100
AcDbLine
 10
835.5
 20
365.0
 30
0.0
 11
900.0
 21
365.0
 31
0.0
  0
LINE
  5
166
100
AcDbEntity
  8
2
  6
CENTER
 62
   174
100
AcDbLine
 10
835.5
 20
343.82
 30
0.0
 11
900.0
 21
343.82
 31
0.0
  0
LINE
  5
167
100
AcDbEntity
  8
2
  6
Continuous
 62
   174
100
AcDbLine
 10
1127.5
 20
303.0
 30
0.0
 11
1200.0
 21
303.0
 31
0.0
  0
LINE
  5
168
100
AcDbEntity
  8
2
  6
Continuous
 62
   174
100
AcDbLine
 10
1127.5
 20
306.6
 30
0.0
 11
1127.5
 21
300.0
 31
0.0
  0
LINE
  5
169
100
AcDbEntity
  8
2
  6
Continuous
 62
   174
100
AcDbLine
 10
1200.0
 20
304.3
 30
0.0
 11
1127.5
 21
304.3
 31
0.0
  0
LINE
  5
16A
100
AcDbEntity
  8
2
  6
Continuous
 62
   174
100
AcDbLine
 10
1200.0
 20
306.6
 30
0.0
 11
1100.0
 21
306.6
 31
0.0
  0
LINE
  5
16B
100
AcDbEntity
  8
2
  6
Continuous
 62
   174
100
AcDbLine
 10
1100.0
 20
306.6
 30
0.0
 11
1100.0
 21
322.6
 31
0.0
  0
LINE
  5
16C
100
AcDbEntity
  8
2
  6
Continuous
 62
   174
100
AcDbLine
 10
1100.0
 20
322.6
 30
0.0
 11
1200.0
 21
322.6
 31
0.0
  0
LINE
  5
16D
100
AcDbEntity
  8
2
  6
CENTER
 62
   174
100
AcDbLine
 10
1117.5
 20
332.6
 30
0.0
 11
1117.5
 21
296.6
 31
0.0
  0
LINE
  5
16E
100
AcDbEntity
  8
2
  6
CENTER
 62
   174
100
AcDbLine
 10
1117.5
 20
332.6
 30
0.0
 11
1117.5
 21
296.6
 31
0.0
  0
LINE
  5
16F
100
AcDbEntity
  8
2
  6
HIDDEN
 62
   174
100
AcDbLine
 10
1127.0
 20
322.6
 30
0.0
 11
1127.0
 21
306.6
 31
0.0
  0
LINE
  5
170
100
AcDbEntity
  8
2
  6
HIDDEN
 62
   174
100
AcDbLine
 10
1108.0
 20
322.6
 30
0.0
 11
1108.0
 21
306.6
 31
0.0
  0
LINE
  5
171
100
AcDbEntity
  8
2
  6
CENTER
 62
   174
100
AcDbLine
 10
1133.0
 20
354.41
 30
0.0
 11
1143.0
 21
354.41
 31
0.0
  0
LINE
  5
172
100
AcDbEntity
  8
2
  6
Continuous
 62
   174
100
AcDbLine
 10
1143.114549
 20
323.523905
 30
0.0
 11
1135.678452
 21
330.884704
 31
0.0
  0
ARC
  5
173
100
AcDbEntity
  8
2
  6
Continuous
 62
   174
100
AcDbCircle
 10
1142.2
 20
322.6
 30
0.0
 40
1.3
100
AcDbArc
 50
0.0
 51
45.292514
  0
ARC
  5
174
100
AcDbEntity
  8
2
  6
Continuous
 62
   174
100
AcDbCircle
 10
1138.0
 20
333.23
 30
0.0
 40
3.3
100
AcDbArc
 50
137.567524
 51
-134.807852
  0
ARC
  5
175
100
AcDbEntity
  8
2
  6
Continuous
 62
   174
100
AcDbCircle
 10
1138.0
 20
354.41
 30
0.0
 40
3.3
100
AcDbArc
 50
137.568194
 51
-137.567661
  0
LINE
  5
176
100
AcDbEntity
  8
2
  6
Continuous
 62
   174
100
AcDbLine
 10
1140.5
 20
367.0
 30
0.0
 11
1200.0
 21
367.0
 31
0.0
  0
LINE
  5
177
100
AcDbEntity
  8
2
  6
Continuous
 62
   174
100
AcDbLine
 10
1140.5
 20
363.0
 30
0.0
 11
1200.0
 21
363.0
 31
0.0
  0
LINE
  5
178
100
AcDbEntity
  8
2
  6
Continuous
 62
   174
100
AcDbLine
 10
1138.0
 20
354.41
 30
0.0
 11
1200.0
 21
354.41
 31
0.0
  0
LINE
  5
179
100
AcDbEntity
  8
2
  6
Continuous
 62
   174
100
AcDbLine
 10
1140.5
 20
345.82
 30
0.0
 11
1200.0
 21
345.82
 31
0.0
  0
LINE
  5
17A
100
AcDbEntity
  8
2
  6
Continuous
 62
   174
100
AcDbLine
 10
1140.5
 20
341.82
 30
0.0
 11
1200.0
 21
341.82
 31
0.0
  0
LINE
  5
17B
100
AcDbEntity
  8
2
  6
Continuous
 62
   174
100
AcDbLine
 10
1138.0
 20
333.23
 30
0.0
 11
1200.0
 21
333.23
 31
0.0
  0
ARC
  5
17C
100
AcDbEntity
  8
2
  6
Continuous
 62
   174
100
AcDbCircle
 10
1140.5
 20
343.82
 30
0.0
 40
2.0
100
AcDbArc
 50
90.0
 51
-90.0
  0
LINE
  5
17D
100
AcDbEntity
  8
2
  6
Continuous
 62
   174
100
AcDbLine
 10
1141.381442
 20
345.82
 30
0.0
 11
1135.564333
 21
352.18345
 31
0.0
  0
LINE
  5
17E
100
AcDbEntity
  8
2
  6
Continuous
 62
   174
100
AcDbLine
 10
1141.381442
 20
341.82
 30
0.0
 11
1135.564333
 21
335.45655
 31
0.0
  0
ARC
  5
17F
100
AcDbEntity
  8
2
  6
Continuous
 62
   174
100
AcDbCircle
 10
1140.5
 20
365.0
 30
0.0
 40
2.0
100
AcDbArc
 50
90.0
 51
-90.0
  0
LINE
  5
180
100
AcDbEntity
  8
2
  6
Continuous
 62
   174
100
AcDbLine
 10
1138.369338
 20
370.295
 30
0.0
 11
1141.381442
 21
367.0
 31
0.0
  0
LINE
  5
181
100
AcDbEntity
  8
2
  6
Continuous
 62
   174
100
AcDbLine
 10
1141.381442
 20
363.0
 30
0.0
 11
1135.564333
 21
356.63655
 31
0.0
  0
LINE
  5
182
100
AcDbEntity
  8
2
  6
CENTER
 62
   174
100
AcDbLine
 10
1135.5
 20
365.0
 30
0.0
 11
1200.0
 21
365.0
 31
0.0
  0
LINE
  5
183
100
AcDbEntity
  8
2
  6
CENTER
 62
   174
100
AcDbLine
 10
1135.5
 20
343.82
 30
0.0
 11
1200.0
 21
343.82
 31
0.0
  0
LINE
  5
184
100
AcDbEntity
  8
2
  6
Continuous
 62
   174
100
AcDbLine
 10
1427.5
 20
303.0
 30
0.0
 11
1500.0
 21
303.0
 31
0.0
  0
LINE
  5
185
100
AcDbEntity
  8
2
  6
Continuous
 62
   174
100
AcDbLine
 10
1427.5
 20
306.6
 30
0.0
 11
1427.5
 21
300.0
 31
0.0
  0
LINE
  5
186
100
AcDbEntity
  8
2
  6
Continuous
 62
   174
100
AcDbLine
 10
1500.0
 20
304.3
 30
0.0
 11
1427.5
 21
304.3
 31
0.0
  0
LINE
  5
187
100
AcDbEntity
  8
2
  6
Continuous
 62
   174
100
AcDbLine
 10
1500.0
 20
306.6
 30
0.0
 11
1400.0
 21
306.6
 31
0.0
  0
LINE
  5
188
100
AcDbEntity
  8
2
  6
Continuous
 62
   174
100
AcDbLine
 10
1400.0
 20
306.6
 30
0.0
 11
1400.0
 21
322.6
 31
0.0
  0
LINE
  5
189
100
AcDbEntity
  8
2
  6
Continuous
 62
   174
100
AcDbLine
 10
1400.0
 20
322.6
 30
0.0
 11
1500.0
 21
322.6
 31
0.0
  0
LINE
  5
18A
100
AcDbEntity
  8
2
  6
CENTER
 62
   174
100
AcDbLine
 10
1417.5
 20
332.6
 30
0.0
 11
1417.5
 21
296.6
 31
0.0
  0
LINE
  5
18B
100
AcDbEntity
  8
2
  6
CENTER
 62
   174
100
AcDbLine
 10
1417.5
 20
332.6
 30
0.0
 11
1417.5
 21
296.6
 31
0.0
  0
LINE
  5
18C
100
AcDbEntity
  8
2
  6
HIDDEN
 62
   174
100
AcDbLine
 10
1427.0
 20
322.6
 30
0.0
 11
1427.0
 21
306.6
 31
0.0
  0
LINE
  5
18D
100
AcDbEntity
  8
2
  6
HIDDEN
 62
   174
100
AcDbLine
 10
1408.0
 20
322.6
 30
0.0
 11
1408.0
 21
306.6
 31
0.0
  0
LINE
  5
18E
100
AcDbEntity
  8
2
  6
CENTER
 62
   174
100
AcDbLine
 10
1433.0
 20
354.41
 30
0.0
 11
1443.0
 21
354.41
 31
0.0
  0
LINE
  5
18F
100
AcDbEntity
  8
2
  6
Continuous
 62
   174
100
AcDbLine
 10
1443.114549
 20
323.523905
 30
0.0
 11
1435.678452
 21
330.884704
 31
0.0
  0
ARC
  5
190
100
AcDbEntity
  8
2
  6
Continuous
 62
   174
100
AcDbCircle
 10
1442.2
 20
322.6
 30
0.0
 40
1.3
100
AcDbArc
 50
0.0
 51
45.292514
  0
ARC
  5
191
100
AcDbEntity
  8
2
  6
Continuous
 62
   174
100
AcDbCircle
 10
1438.0
 20
333.23
 30
0.0
 40
3.3
100
AcDbArc
 50
137.567524
 51
-134.807852
  0
ARC
  5
192
100
AcDbEntity
  8
2
  6
Continuous
 62
   174
100
AcDbCircle
 10
1438.0
 20
354.41
 30
0.0
 40
3.3
100
AcDbArc
 50
137.568194
 51
-137.567661
  0
LINE
  5
193
100
AcDbEntity
  8
2
  6
Continuous
 62
   174
100
AcDbLine
 10
1440.5
 20
367.0
 30
0.0
 11
1500.0
 21
367.0
 31
0.0
  0
LINE
  5
194
100
AcDbEntity
  8
2
  6
Continuous
 62
   174
100
AcDbLine
 10
1440.5
 20
363.0
 30
0.0
 11
1500.0
 21
363.0
 31
0.0
  0
LINE
  5
195
100
AcDbEntity
  8
2
  6
Continuous
 62
   174
100
AcDbLine
 10
1438.0
 20
354.41
 30
0.0
 11
1500.0
 21
354.41
 31
0.0
  0
LINE
  5
196
100
AcDbEntity
  8
2
  6
Continuous
 62
   174
100
AcDbLine
 10
1440.5
 20
345.82
 30
0.0
 11
1500.0
 21
345.82
 31
0.0
  0
LINE
  5
197
100
AcDbEntity
  8
2
  6
Continuous
 62
   174
100
AcDbLine
 10
1440.5
 20
341.82
 30
0.0
 11
1500.0
 21
341.82
 31
0.0
  0
LINE
  5
198
100
AcDbEntity
  8
2
  6
Continuous
 62
   174
100
AcDbLine
 10
1438.0
 20
333.23
 30
0.0
 11
1500.0
 21
333.23
 31
0.0
  0
ARC
  5
199
100
AcDbEntity
  8
2
  6
Continuous
 62
   174
100
AcDbCircle
 10
1440.5
 20
343.82
 30
0.0
 40
2.0
100
AcDbArc
 50
90.0
 51
-90.0
  0
LINE
  5
19A
100
AcDbEntity
  8
2
  6
Continuous
 62
   174
100
AcDbLine
 10
1441.381442
 20
345.82
 30
0.0
 11
1435.564333
 21
352.18345
 31
0.0
  0
LINE
  5
19B
100
AcDbEntity
  8
2
  6
Continuous
 62
   174
100
AcDbLine
 10
1441.381442
 20
341.82
 30
0.0
 11
1435.564333
 21
335.45655
 31
0.0
  0
ARC
  5
19C
100
AcDbEntity
  8
2
  6
Continuous
 62
   174
100
AcDbCircle
 10
1440.5
 20
365.0
 30
0.0
 40
2.0
100
AcDbArc
 50
90.0
 51
-90.0
  0
LINE
  5
19D
100
AcDbEntity
  8
2
  6
Continuous
 62
   174
100
AcDbLine
 10
1438.369338
 20
370.295
 30
0.0
 11
1441.381442
 21
367.0
 31
0.0
  0
LINE
  5
19E
100
AcDbEntity
  8
2
  6
Continuous
 62
   174
100
AcDbLine
 10
1441.381442
 20
363.0
 30
0.0
 11
1435.564333
 21
356.63655
 31
0.0
  0
LINE
  5
19F
100
AcDbEntity
  8
2
  6
CENTER
 62
   174
100
AcDbLine
 10
1435.5
 20
365.0
 30
0.0
 11
1500.0
 21
365.0
 31
0.0
  0
LINE
  5
1A0
100
AcDbEntity
  8
2
  6
CENTER
 62
   174
100
AcDbLine
 10
1435.5
 20
343.82
 30
0.0
 11
1500.0
 21
343.82
 31
0.0
  0
LINE
  5
1A1
100
AcDbEntity
  8
2
  6
Continuous
 62
   174
100
AcDbLine
 10
1727.5
 20
303.0
 30
0.0
 11
1800.0
 21
303.0
 31
0.0
  0
LINE
  5
1A2
100
AcDbEntity
  8
2
  6
Continuous
 62
   174
100
AcDbLine
 10
1727.5
 20
306.6
 30
0.0
 11
1727.5
 21
300.0
 31
0.0
  0
LINE
  5
1A3
100
AcDbEntity
  8
2
  6
Continuous
 62
   174
100
AcDbLine
 10
1800.0
 20
304.3
 30
0.0
 11
1727.5
 21
304.3
 31
0.0
  0
LINE
  5
1A4
100
AcDbEntity
  8
2
  6
Continuous
 62
   174
100
AcDbLine
 10
1800.0
 20
306.6
 30
0.0
 11
1700.0
 21
306.6
 31
0.0
  0
LINE
  5
1A5
100
AcDbEntity
  8
2
  6
Continuous
 62
   174
100
AcDbLine
 10
1700.0
 20
306.6
 30
0.0
 11
1700.0
 21
322.6
 31
0.0
  0
LINE
  5
1A6
100
AcDbEntity
  8
2
  6
Continuous
 62
   174
100
AcDbLine
 10
1700.0
 20
322.6
 30
0.0
 11
1800.0
 21
322.6
 31
0.0
  0
LINE
  5
1A7
100
AcDbEntity
  8
2
  6
CENTER
 62
   174
100
AcDbLine
 10
1717.5
 20
332.6
 30
0.0
 11
1717.5
 21
296.6
 31
0.0
  0
LINE
  5
1A8
100
AcDbEntity
  8
2
  6
CENTER
 62
   174
100
AcDbLine
 10
1717.5
 20
332.6
 30
0.0
 11
1717.5
 21
296.6
 31
0.0
  0
LINE
  5
1A9
100
AcDbEntity
  8
2
  6
HIDDEN
 62
   174
100
AcDbLine
 10
1727.0
 20
322.6
 30
0.0
 11
1727.0
 21
306.6
 31
0.0
  0
LINE
  5
1AA
100
AcDbEntity
  8
2
  6
HIDDEN
 62
   174
100
AcDbLine
 10
1708.0
 20
322.6
 30
0.0
 11
1708.0
 21
306.6
 31
0.0
  0
LINE
  5
1AB
100
AcDbEntity
  8
2
  6
CENTER
 62
   174
100
AcDbLine
 10
1733.0
 20
354.41
 30
0.0
 11
1743.0
 21
354.41
 31
0.0
  0
LINE
  5
1AC
100
AcDbEntity
  8
2
  6
Continuous
 62
   174
100
AcDbLine
 10
1743.114549
 20
323.523905
 30
0.0
 11
1735.678452
 21
330.884704
 31
0.0
  0
ARC
  5
1AD
100
AcDbEntity
  8
2
  6
Continuous
 62
   174
100
AcDbCircle
 10
1742.2
 20
322.6
 30
0.0
 40
1.3
100
AcDbArc
 50
0.0
 51
45.292514
  0
ARC
  5
1AE
100
AcDbEntity
  8
2
  6
Continuous
 62
   174
100
AcDbCircle
 10
1738.0
 20
333.23
 30
0.0
 40
3.3
100
AcDbArc
 50
137.567524
 51
-134.807852
  0
ARC
  5
1AF
100
AcDbEntity
  8
2
  6
Continuous
 62
   174
100
AcDbCircle
 10
1738.0
 20
354.41
 30
0.0
 40
3.3
100
AcDbArc
 50
137.568194
 51
-137.567661
  0
LINE
  5
1B0
100
AcDbEntity
  8
2
  6
Continuous
 62
   174
100
AcDbLine
 10
1740.5
 20
367.0
 30
0.0
 11
1800.0
 21
367.0
 31
0.0
  0
LINE
  5
1B1
100
AcDbEntity
  8
2
  6
Continuous
 62
   174
100
AcDbLine
 10
1740.5
 20
363.0
 30
0.0
 11
1800.0
 21
363.0
 31
0.0
  0
LINE
  5
1B2
100
AcDbEntity
  8
2
  6
Continuous
 62
   174
100
AcDbLine
 10
1738.0
 20
354.41
 30
0.0
 11
1800.0
 21
354.41
 31
0.0
  0
LINE
  5
1B3
100
AcDbEntity
  8
2
  6
Continuous
 62
   174
100
AcDbLine
 10
1740.5
 20
345.82
 30
0.0
 11
1800.0
 21
345.82
 31
0.0
  0
LINE
  5
1B4
100
AcDbEntity
  8
2
  6
Continuous
 62
   174
100
AcDbLine
 10
1740.5
 20
341.82
 30
0.0
 11
1800.0
 21
341.82
 31
0.0
  0
LINE
  5
1B5
100
AcDbEntity
  8
2
  6
Continuous
 62
   174
100
AcDbLine
 10
1738.0
 20
333.23
 30
0.0
 11
1800.0
 21
333.23
 31
0.0
  0
ARC
  5
1B6
100
AcDbEntity
  8
2
  6
Continuous
 62
   174
100
AcDbCircle
 10
1740.5
 20
343.82
 30
0.0
 40
2.0
100
AcDbArc
 50
90.0
 51
-90.0
  0
LINE
  5
1B7
100
AcDbEntity
  8
2
  6
Continuous
 62
   174
100
AcDbLine
 10
1741.381442
 20
345.82
 30
0.0
 11
1735.564333
 21
352.18345
 31
0.0
  0
LINE
  5
1B8
100
AcDbEntity
  8
2
  6
Continuous
 62
   174
100
AcDbLine
 10
1741.381442
 20
341.82
 30
0.0
 11
1735.564333
 21
335.45655
 31
0.0
  0
ARC
  5
1B9
100
AcDbEntity
  8
2
  6
Continuous
 62
   174
100
AcDbCircle
 10
1740.5
 20
365.0
 30
0.0
 40
2.0
100
AcDbArc
 50
90.0
 51
-90.0
  0
LINE
  5
1BA
100
AcDbEntity
  8
2
  6
Continuous
 62
   174
100
AcDbLine
 10
1738.369338
 20
370.295
 30
0.0
 11
1741.381442
 21
367.0
 31
0.0
  0
LINE
  5
1BB
100
AcDbEntity
  8
2
  6
Continuous
 62
   174
100
AcDbLine
 10
1741.381442
 20
363.0
 30
0.0
 11
1735.564333
 21
356.63655
 31
0.0
  0
LINE
  5
1BC
100
AcDbEntity
  8
2
  6
CENTER
 62
   174
100
AcDbLine
 10
1735.5
 20
365.0
 30
0.0
 11
1800.0
 21
365.0
 31
0.0
  0
LINE
  5
1BD
100
AcDbEntity
  8
2
  6
CENTER
 62
   174
100
AcDbLine
 10
1735.5
 20
343.82
 30
0.0
 11
1800.0
 21
343.82
 31
0.0
  0
LINE
  5
1BE
100
AcDbEntity
  8
2
  6
Continuous
 62
   174
100
AcDbLine
 10
2027.5
 20
303.0
 30
0.0
 11
2100.0
 21
303.0
 31
0.0
  0
LINE
  5
1BF
100
AcDbEntity
  8
2
  6
Continuous
 62
   174
100
AcDbLine
 10
2027.5
 20
306.6
 30
0.0
 11
2027.5
 21
300.0
 31
0.0
  0
LINE
  5
1C0
100
AcDbEntity
  8
2
  6
Continuous
 62
   174
100
AcDbLine
 10
2100.0
 20
304.3
 30
0.0
 11
2027.5
 21
304.3
 31
0.0
  0
LINE
  5
1C1
100
AcDbEntity
  8
2
  6
Continuous
 62
   174
100
AcDbLine
 10
2100.0
 20
306.6
 30
0.0
 11
2000.0
 21
306.6
 31
0.0
  0
LINE
  5
1C2
100
AcDbEntity
  8
2
  6
Continuous
 62
   174
100
AcDbLine
 10
2000.0
 20
306.6
 30
0.0
 11
2000.0
 21
322.6
 31
0.0
  0
LINE
  5
1C3
100
AcDbEntity
  8
2
  6
Continuous
 62
   174
100
AcDbLine
 10
2000.0
 20
322.6
 30
0.0
 11
2100.0
 21
322.6
 31
0.0
  0
LINE
  5
1C4
100
AcDbEntity
  8
2
  6
CENTER
 62
   174
100
AcDbLine
 10
2017.5
 20
332.6
 30
0.0
 11
2017.5
 21
296.6
 31
0.0
  0
LINE
  5
1C5
100
AcDbEntity
  8
2
  6
CENTER
 62
   174
100
AcDbLine
 10
2017.5
 20
332.6
 30
0.0
 11
2017.5
 21
296.6
 31
0.0
  0
LINE
  5
1C6
100
AcDbEntity
  8
2
  6
HIDDEN
 62
   174
100
AcDbLine
 10
2027.0
 20
322.6
 30
0.0
 11
2027.0
 21
306.6
 31
0.0
  0
LINE
  5
1C7
100
AcDbEntity
  8
2
  6
HIDDEN
 62
   174
100
AcDbLine
 10
2008.0
 20
322.6
 30
0.0
 11
2008.0
 21
306.6
 31
0.0
  0
LINE
  5
1C8
100
AcDbEntity
  8
2
  6
CENTER
 62
   174
100
AcDbLine
 10
2033.0
 20
354.41
 30
0.0
 11
2043.0
 21
354.41
 31
0.0
  0
LINE
  5
1C9
100
AcDbEntity
  8
2
  6
Continuous
 62
   174
100
AcDbLine
 10
2043.114549
 20
323.523905
 30
0.0
 11
2035.678452
 21
330.884704
 31
0.0
  0
ARC
  5
1CA
100
AcDbEntity
  8
2
  6
Continuous
 62
   174
100
AcDbCircle
 10
2042.2
 20
322.6
 30
0.0
 40
1.3
100
AcDbArc
 50
0.0
 51
45.292514
  0
ARC
  5
1CB
100
AcDbEntity
  8
2
  6
Continuous
 62
   174
100
AcDbCircle
 10
2038.0
 20
333.23
 30
0.0
 40
3.3
100
AcDbArc
 50
137.567524
 51
-134.807852
  0
ARC
  5
1CC
100
AcDbEntity
  8
2
  6
Continuous
 62
   174
100
AcDbCircle
 10
2038.0
 20
354.41
 30
0.0
 40
3.3
100
AcDbArc
 50
137.568194
 51
-137.567661
  0
LINE
  5
1CD
100
AcDbEntity
  8
2
  6
Continuous
 62
   174
100
AcDbLine
 10
2040.5
 20
367.0
 30
0.0
 11
2100.0
 21
367.0
 31
0.0
  0
LINE
  5
1CE
100
AcDbEntity
  8
2
  6
Continuous
 62
   174
100
AcDbLine
 10
2040.5
 20
363.0
 30
0.0
 11
2100.0
 21
363.0
 31
0.0
  0
LINE
  5
1CF
100
AcDbEntity
  8
2
  6
Continuous
 62
   174
100
AcDbLine
 10
2038.0
 20
354.41
 30
0.0
 11
2100.0
 21
354.41
 31
0.0
  0
LINE
  5
1D0
100
AcDbEntity
  8
2
  6
Continuous
 62
   174
100
AcDbLine
 10
2040.5
 20
345.82
 30
0.0
 11
2100.0
 21
345.82
 31
0.0
  0
LINE
  5
1D1
100
AcDbEntity
  8
2
  6
Continuous
 62
   174
100
AcDbLine
 10
2040.5
 20
341.82
 30
0.0
 11
2100.0
 21
341.82
 31
0.0
  0
LINE
  5
1D2
100
AcDbEntity
  8
2
  6
Continuous
 62
   174
100
AcDbLine
 10
2038.0
 20
333.23
 30
0.0
 11
2100.0
 21
333.23
 31
0.0
  0
ARC
  5
1D3
100
AcDbEntity
  8
2
  6
Continuous
 62
   174
100
AcDbCircle
 10
2040.5
 20
343.82
 30
0.0
 40
2.0
100
AcDbArc
 50
90.0
 51
-90.0
  0
LINE
  5
1D4
100
AcDbEntity
  8
2
  6
Continuous
 62
   174
100
AcDbLine
 10
2041.381442
 20
345.82
 30
0.0
 11
2035.564333
 21
352.18345
 31
0.0
  0
LINE
  5
1D5
100
AcDbEntity
  8
2
  6
Continuous
 62
   174
100
AcDbLine
 10
2041.381442
 20
341.82
 30
0.0
 11
2035.564333
 21
335.45655
 31
0.0
  0
ARC
  5
1D6
100
AcDbEntity
  8
2
  6
Continuous
 62
   174
100
AcDbCircle
 10
2040.5
 20
365.0
 30
0.0
 40
2.0
100
AcDbArc
 50
90.0
 51
-90.0
  0
LINE
  5
1D7
100
AcDbEntity
  8
2
  6
Continuous
 62
   174
100
AcDbLine
 10
2038.369338
 20
370.295
 30
0.0
 11
2041.381442
 21
367.0
 31
0.0
  0
LINE
  5
1D8
100
AcDbEntity
  8
2
  6
Continuous
 62
   174
100
AcDbLine
 10
2041.381442
 20
363.0
 30
0.0
 11
2035.564333
 21
356.63655
 31
0.0
  0
LINE
  5
1D9
100
AcDbEntity
  8
2
  6
CENTER
 62
   174
100
AcDbLine
 10
2035.5
 20
365.0
 30
0.0
 11
2100.0
 21
365.0
 31
0.0
  0
LINE
  5
1DA
100
AcDbEntity
  8
2
  6
CENTER
 62
   174
100
AcDbLine
 10
2035.5
 20
343.82
 30
0.0
 11
2100.0
 21
343.82
 31
0.0
  0
LINE
  5
1DB
100
AcDbEntity
  8
2
  6
Continuous
 62
   174
100
AcDbLine
 10
2327.5
 20
303.0
 30
0.0
 11
2400.0
 21
303.0
 31
0.0
  0
LINE
  5
1DC
100
AcDbEntity
  8
2
  6
Continuous
 62
   174
100
AcDbLine
 10
2327.5
 20
306.6
 30
0.0
 11
2327.5
 21
300.0
 31
0.0
  0
LINE
  5
1DD
100
AcDbEntity
  8
2
  6
Continuous
 62
   174
100
AcDbLine
 10
2400.0
 20
304.3
 30
0.0
 11
2327.5
 21
304.3
 31
0.0
  0
LINE
  5
1DE
100
AcDbEntity
  8
2
  6
Continuous
 62
   174
100
AcDbLine
 10
2400.0
 20
306.6
 30
0.0
 11
2300.0
 21
306.6
 31
0.0
  0
LINE
  5
1DF
100
AcDbEntity
  8
2
  6
Continuous
 62
   174
100
AcDbLine
 10
2300.0
 20
306.6
 30
0.0
 11
2300.0
 21
322.6
 31
0.0
  0
LINE
  5
1E0
100
AcDbEntity
  8
2
  6
Continuous
 62
   174
100
AcDbLine
 10
2300.0
 20
322.6
 30
0.0
 11
2400.0
 21
322.6
 31
0.0
  0
LINE
  5
1E1
100
AcDbEntity
  8
2
  6
CENTER
 62
   174
100
AcDbLine
 10
2317.5
 20
332.6
 30
0.0
 11
2317.5
 21
296.6
 31
0.0
  0
LINE
  5
1E2
100
AcDbEntity
  8
2
  6
CENTER
 62
   174
100
AcDbLine
 10
2317.5
 20
332.6
 30
0.0
 11
2317.5
 21
296.6
 31
0.0
  0
LINE
  5
1E3
100
AcDbEntity
  8
2
  6
HIDDEN
 62
   174
100
AcDbLine
 10
2327.0
 20
322.6
 30
0.0
 11
2327.0
 21
306.6
 31
0.0
  0
LINE
  5
1E4
100
AcDbEntity
  8
2
  6
HIDDEN
 62
   174
100
AcDbLine
 10
2308.0
 20
322.6
 30
0.0
 11
2308.0
 21
306.6
 31
0.0
  0
LINE
  5
1E5
100
AcDbEntity
  8
2
  6
CENTER
 62
   174
100
AcDbLine
 10
2333.0
 20
354.41
 30
0.0
 11
2343.0
 21
354.41
 31
0.0
  0
LINE
  5
1E6
100
AcDbEntity
  8
2
  6
Continuous
 62
   174
100
AcDbLine
 10
2343.114549
 20
323.523905
 30
0.0
 11
2335.678452
 21
330.884704
 31
0.0
  0
ARC
  5
1E7
100
AcDbEntity
  8
2
  6
Continuous
 62
   174
100
AcDbCircle
 10
2342.2
 20
322.6
 30
0.0
 40
1.3
100
AcDbArc
 50
0.0
 51
45.292514
  0
ARC
  5
1E8
100
AcDbEntity
  8
2
  6
Continuous
 62
   174
100
AcDbCircle
 10
2338.0
 20
333.23
 30
0.0
 40
3.3
100
AcDbArc
 50
137.567524
 51
-134.807852
  0
ARC
  5
1E9
100
AcDbEntity
  8
2
  6
Continuous
 62
   174
100
AcDbCircle
 10
2338.0
 20
354.41
 30
0.0
 40
3.3
100
AcDbArc
 50
137.568194
 51
-137.567661
  0
LINE
  5
1EA
100
AcDbEntity
  8
2
  6
Continuous
 62
   174
100
AcDbLine
 10
2340.5
 20
367.0
 30
0.0
 11
2400.0
 21
367.0
 31
0.0
  0
LINE
  5
1EB
100
AcDbEntity
  8
2
  6
Continuous
 62
   174
100
AcDbLine
 10
2340.5
 20
363.0
 30
0.0
 11
2400.0
 21
363.0
 31
0.0
  0
LINE
  5
1EC
100
AcDbEntity
  8
2
  6
Continuous
 62
   174
100
AcDbLine
 10
2338.0
 20
354.41
 30
0.0
 11
2400.0
 21
354.41
 31
0.0
  0
LINE
  5
1ED
100
AcDbEntity
  8
2
  6
Continuous
 62
   174
100
AcDbLine
 10
2340.5
 20
345.82
 30
0.0
 11
2400.0
 21
345.82
 31
0.0
  0
LINE
  5
1EE
100
AcDbEntity
  8
2
  6
Continuous
 62
   174
100
AcDbLine
 10
2340.5
 20
341.82
 30
0.0
 11
2400.0
 21
341.82
 31
0.0
  0
LINE
  5
1EF
100
AcDbEntity
  8
2
  6
Continuous
 62
   174
100
AcDbLine
 10
2338.0
 20
333.23
 30
0.0
 11
2400.0
 21
333.23
 31
0.0
  0
ARC
  5
1F0
100
AcDbEntity
  8
2
  6
Continuous
 62
   174
100
AcDbCircle
 10
2340.5
 20
343.82
 30
0.0
 40
2.0
100
AcDbArc
 50
90.0
 51
-90.0
  0
LINE
  5
1F1
100
AcDbEntity
  8
2
  6
Continuous
 62
   174
100
AcDbLine
 10
2341.381442
 20
345.82
 30
0.0
 11
2335.564333
 21
352.18345
 31
0.0
  0
LINE
  5
1F2
100
AcDbEntity
  8
2
  6
Continuous
 62
   174
100
AcDbLine
 10
2341.381442
 20
341.82
 30
0.0
 11
2335.564333
 21
335.45655
 31
0.0
  0
ARC
  5
1F3
100
AcDbEntity
  8
2
  6
Continuous
 62
   174
100
AcDbCircle
 10
2340.5
 20
365.0
 30
0.0
 40
2.0
100
AcDbArc
 50
90.0
 51
-90.0
  0
LINE
  5
1F4
100
AcDbEntity
  8
2
  6
Continuous
 62
   174
100
AcDbLine
 10
2338.369338
 20
370.295
 30
0.0
 11
2341.381442
 21
367.0
 31
0.0
  0
LINE
  5
1F5
100
AcDbEntity
  8
2
  6
Continuous
 62
   174
100
AcDbLine
 10
2341.381442
 20
363.0
 30
0.0
 11
2335.564333
 21
356.63655
 31
0.0
  0
LINE
  5
1F6
100
AcDbEntity
  8
2
  6
CENTER
 62
   174
100
AcDbLine
 10
2335.5
 20
365.0
 30
0.0
 11
2400.0
 21
365.0
 31
0.0
  0
LINE
  5
1F7
100
AcDbEntity
  8
2
  6
CENTER
 62
   174
100
AcDbLine
 10
2335.5
 20
343.82
 30
0.0
 11
2400.0
 21
343.82
 31
0.0
  0
LINE
  5
1F8
100
AcDbEntity
  8
2
  6
Continuous
 62
   174
100
AcDbLine
 10
2627.5
 20
303.0
 30
0.0
 11
2700.0
 21
303.0
 31
0.0
  0
LINE
  5
1F9
100
AcDbEntity
  8
2
  6
Continuous
 62
   174
100
AcDbLine
 10
2627.5
 20
306.6
 30
0.0
 11
2627.5
 21
300.0
 31
0.0
  0
LINE
  5
1FA
100
AcDbEntity
  8
2
  6
Continuous
 62
   174
100
AcDbLine
 10
2700.0
 20
304.3
 30
0.0
 11
2627.5
 21
304.3
 31
0.0
  0
LINE
  5
1FB
100
AcDbEntity
  8
2
  6
Continuous
 62
   174
100
AcDbLine
 10
2700.0
 20
306.6
 30
0.0
 11
2600.0
 21
306.6
 31
0.0
  0
LINE
  5
1FC
100
AcDbEntity
  8
2
  6
Continuous
 62
   174
100
AcDbLine
 10
2600.0
 20
306.6
 30
0.0
 11
2600.0
 21
322.6
 31
0.0
  0
LINE
  5
1FD
100
AcDbEntity
  8
2
  6
Continuous
 62
   174
100
AcDbLine
 10
2600.0
 20
322.6
 30
0.0
 11
2700.0
 21
322.6
 31
0.0
  0
LINE
  5
1FE
100
AcDbEntity
  8
2
  6
CENTER
 62
   174
100
AcDbLine
 10
2617.5
 20
332.6
 30
0.0
 11
2617.5
 21
296.6
 31
0.0
  0
LINE
  5
1FF
100
AcDbEntity
  8
2
  6
CENTER
 62
   174
100
AcDbLine
 10
2617.5
 20
332.6
 30
0.0
 11
2617.5
 21
296.6
 31
0.0
  0
LINE
  5
200
100
AcDbEntity
  8
2
  6
HIDDEN
 62
   174
100
AcDbLine
 10
2627.0
 20
322.6
 30
0.0
 11
2627.0
 21
306.6
 31
0.0
  0
LINE
  5
201
100
AcDbEntity
  8
2
  6
HIDDEN
 62
   174
100
AcDbLine
 10
2608.0
 20
322.6
 30
0.0
 11
2608.0
 21
306.6
 31
0.0
  0
LINE
  5
202
100
AcDbEntity
  8
2
  6
CENTER
 62
   174
100
AcDbLine
 10
2633.0
 20
354.41
 30
0.0
 11
2643.0
 21
354.41
 31
0.0
  0
LINE
  5
203
100
AcDbEntity
  8
2
  6
Continuous
 62
   174
100
AcDbLine
 10
2643.114549
 20
323.523905
 30
0.0
 11
2635.678452
 21
330.884704
 31
0.0
  0
ARC
  5
204
100
AcDbEntity
  8
2
  6
Continuous
 62
   174
100
AcDbCircle
 10
2642.2
 20
322.6
 30
0.0
 40
1.3
100
AcDbArc
 50
0.0
 51
45.292514
  0
ARC
  5
205
100
AcDbEntity
  8
2
  6
Continuous
 62
   174
100
AcDbCircle
 10
2638.0
 20
333.23
 30
0.0
 40
3.3
100
AcDbArc
 50
137.567524
 51
-134.807852
  0
ARC
  5
206
100
AcDbEntity
  8
2
  6
Continuous
 62
   174
100
AcDbCircle
 10
2638.0
 20
354.41
 30
0.0
 40
3.3
100
AcDbArc
 50
137.568194
 51
-137.567661
  0
LINE
  5
207
100
AcDbEntity
  8
2
  6
Continuous
 62
   174
100
AcDbLine
 10
2640.5
 20
367.0
 30
0.0
 11
2700.0
 21
367.0
 31
0.0
  0
LINE
  5
208
100
AcDbEntity
  8
2
  6
Continuous
 62
   174
100
AcDbLine
 10
2640.5
 20
363.0
 30
0.0
 11
2700.0
 21
363.0
 31
0.0
  0
LINE
  5
209
100
AcDbEntity
  8
2
  6
Continuous
 62
   174
100
AcDbLine
 10
2638.0
 20
354.41
 30
0.0
 11
2700.0
 21
354.41
 31
0.0
  0
LINE
  5
20A
100
AcDbEntity
  8
2
  6
Continuous
 62
   174
100
AcDbLine
 10
2640.5
 20
345.82
 30
0.0
 11
2700.0
 21
345.82
 31
0.0
  0
LINE
  5
20B
100
AcDbEntity
  8
2
  6
Continuous
 62
   174
100
AcDbLine
 10
2640.5
 20
341.82
 30
0.0
 11
2700.0
 21
341.82
 31
0.0
  0
LINE
  5
20C
100
AcDbEntity
  8
2
  6
Continuous
 62
   174
100
AcDbLine
 10
2638.0
 20
333.23
 30
0.0
 11
2700.0
 21
333.23
 31
0.0
  0
ARC
  5
20D
100
AcDbEntity
  8
2
  6
Continuous
 62
   174
100
AcDbCircle
 10
2640.5
 20
343.82
 30
0.0
 40
2.0
100
AcDbArc
 50
90.0
 51
-90.0
  0
LINE
  5
20E
100
AcDbEntity
  8
2
  6
Continuous
 62
   174
100
AcDbLine
 10
2641.381442
 20
345.82
 30
0.0
 11
2635.564333
 21
352.18345
 31
0.0
  0
LINE
  5
20F
100
AcDbEntity
  8
2
  6
Continuous
 62
   174
100
AcDbLine
 10
2641.381442
 20
341.82
 30
0.0
 11
2635.564333
 21
335.45655
 31
0.0
  0
ARC
  5
210
100
AcDbEntity
  8
2
  6
Continuous
 62
   174
100
AcDbCircle
 10
2640.5
 20
365.0
 30
0.0
 40
2.0
100
AcDbArc
 50
90.0
 51
-90.0
  0
LINE
  5
211
100
AcDbEntity
  8
2
  6
Continuous
 62
   174
100
AcDbLine
 10
2638.369338
 20
370.295
 30
0.0
 11
2641.381442
 21
367.0
 31
0.0
  0
LINE
  5
212
100
AcDbEntity
  8
2
  6
Continuous
 62
   174
100
AcDbLine
 10
2641.381442
 20
363.0
 30
0.0
 11
2635.564333
 21
356.63655
 31
0.0
  0
LINE
  5
213
100
AcDbEntity
  8
2
  6
CENTER
 62
   174
100
AcDbLine
 10
2635.5
 20
365.0
 30
0.0
 11
2700.0
 21
365.0
 31
0.0
  0
LINE
  5
214
100
AcDbEntity
  8
2
  6
CENTER
 62
   174
100
AcDbLine
 10
2635.5
 20
343.82
 30
0.0
 11
2700.0
 21
343.82
 31
0.0
  0
LINE
  5
215
100
AcDbEntity
  8
2
  6
Continuous
 62
   174
100
AcDbLine
 10
2927.5
 20
303.0
 30
0.0
 11
3000.0
 21
303.0
 31
0.0
  0
LINE
  5
216
100
AcDbEntity
  8
2
  6
Continuous
 62
   174
100
AcDbLine
 10
2927.5
 20
306.6
 30
0.0
 11
2927.5
 21
300.0
 31
0.0
  0
LINE
  5
217
100
AcDbEntity
  8
2
  6
Continuous
 62
   174
100
AcDbLine
 10
3000.0
 20
304.3
 30
0.0
 11
2927.5
 21
304.3
 31
0.0
  0
LINE
  5
218
100
AcDbEntity
  8
2
  6
Continuous
 62
   174
100
AcDbLine
 10
3000.0
 20
306.6
 30
0.0
 11
2900.0
 21
306.6
 31
0.0
  0
LINE
  5
219
100
AcDbEntity
  8
2
  6
Continuous
 62
   174
100
AcDbLine
 10
2900.0
 20
306.6
 30
0.0
 11
2900.0
 21
322.6
 31
0.0
  0
LINE
  5
21A
100
AcDbEntity
  8
2
  6
Continuous
 62
   174
100
AcDbLine
 10
2900.0
 20
322.6
 30
0.0
 11
3000.0
 21
322.6
 31
0.0
  0
LINE
  5
21B
100
AcDbEntity
  8
2
  6
CENTER
 62
   174
100
AcDbLine
 10
2917.5
 20
332.6
 30
0.0
 11
2917.5
 21
296.6
 31
0.0
  0
LINE
  5
21C
100
AcDbEntity
  8
2
  6
CENTER
 62
   174
100
AcDbLine
 10
2917.5
 20
332.6
 30
0.0
 11
2917.5
 21
296.6
 31
0.0
  0
LINE
  5
21D
100
AcDbEntity
  8
2
  6
HIDDEN
 62
   174
100
AcDbLine
 10
2927.0
 20
322.6
 30
0.0
 11
2927.0
 21
306.6
 31
0.0
  0
LINE
  5
21E
100
AcDbEntity
  8
2
  6
HIDDEN
 62
   174
100
AcDbLine
 10
2908.0
 20
322.6
 30
0.0
 11
2908.0
 21
306.6
 31
0.0
  0
LINE
  5
21F
100
AcDbEntity
  8
2
  6
CENTER
 62
   174
100
AcDbLine
 10
2933.0
 20
354.41
 30
0.0
 11
2943.0
 21
354.41
 31
0.0
  0
LINE
  5
220
100
AcDbEntity
  8
2
  6
Continuous
 62
   174
100
AcDbLine
 10
2943.114549
 20
323.523905
 30
0.0
 11
2935.678452
 21
330.884704
 31
0.0
  0
ARC
  5
221
100
AcDbEntity
  8
2
  6
Continuous
 62
   174
100
AcDbCircle
 10
2942.2
 20
322.6
 30
0.0
 40
1.3
100
AcDbArc
 50
0.0
 51
45.292514
  0
ARC
  5
222
100
AcDbEntity
  8
2
  6
Continuous
 62
   174
100
AcDbCircle
 10
2938.0
 20
333.23
 30
0.0
 40
3.3
100
AcDbArc
 50
137.567524
 51
-134.807852
  0
ARC
  5
223
100
AcDbEntity
  8
2
  6
Continuous
 62
   174
100
AcDbCircle
 10
2938.0
 20
354.41
 30
0.0
 40
3.3
100
AcDbArc
 50
137.568194
 51
-137.567661
  0
LINE
  5
224
100
AcDbEntity
  8
2
  6
Continuous
 62
   174
100
AcDbLine
 10
2940.5
 20
367.0
 30
0.0
 11
3000.0
 21
367.0
 31
0.0
  0
LINE
  5
225
100
AcDbEntity
  8
2
  6
Continuous
 62
   174
100
AcDbLine
 10
2940.5
 20
363.0
 30
0.0
 11
3000.0
 21
363.0
 31
0.0
  0
LINE
  5
226
100
AcDbEntity
  8
2
  6
Continuous
 62
   174
100
AcDbLine
 10
2938.0
 20
354.41
 30
0.0
 11
3000.0
 21
354.41
 31
0.0
  0
LINE
  5
227
100
AcDbEntity
  8
2
  6
Continuous
 62
   174
100
AcDbLine
 10
2940.5
 20
345.82
 30
0.0
 11
3000.0
 21
345.82
 31
0.0
  0
LINE
  5
228
100
AcDbEntity
  8
2
  6
Continuous
 62
   174
100
AcDbLine
 10
2940.5
 20
341.82
 30
0.0
 11
3000.0
 21
341.82
 31
0.0
  0
LINE
  5
229
100
AcDbEntity
  8
2
  6
Continuous
 62
   174
100
AcDbLine
 10
2938.0
 20
333.23
 30
0.0
 11
3000.0
 21
333.23
 31
0.0
  0
ARC
  5
22A
100
AcDbEntity
  8
2
  6
Continuous
 62
   174
100
AcDbCircle
 10
2940.5
 20
343.82
 30
0.0
 40
2.0
100
AcDbArc
 50
90.0
 51
-90.0
  0
LINE
  5
22B
100
AcDbEntity
  8
2
  6
Continuous
 62
   174
100
AcDbLine
 10
2941.381442
 20
345.82
 30
0.0
 11
2935.564333
 21
352.18345
 31
0.0
  0
LINE
  5
22C
100
AcDbEntity
  8
2
  6
Continuous
 62
   174
100
AcDbLine
 10
2941.381442
 20
341.82
 30
0.0
 11
2935.564333
 21
335.45655
 31
0.0
  0
ARC
  5
22D
100
AcDbEntity
  8
2
  6
Continuous
 62
   174
100
AcDbCircle
 10
2940.5
 20
365.0
 30
0.0
 40
2.0
100
AcDbArc
 50
90.0
 51
-90.0
  0
LINE
  5
22E
100
AcDbEntity
  8
2
  6
Continuous
 62
   174
100
AcDbLine
 10
2938.369338
 20
370.295
 30
0.0
 11
2941.381442
 21
367.0
 31
0.0
  0
LINE
  5
22F
100
AcDbEntity
  8
2
  6
Continuous
 62
   174
100
AcDbLine
 10
2941.381442
 20
363.0
 30
0.0
 11
2935.564333
 21
356.63655
 31
0.0
  0
LINE
  5
230
100
AcDbEntity
  8
2
  6
CENTER
 62
   174
100
AcDbLine
 10
2935.5
 20
365.0
 30
0.0
 11
3000.0
 21
365.0
 31
0.0
  0
LINE
  5
231
100
AcDbEntity
  8
2
  6
CENTER
 62
   174
100
AcDbLine
 10
2935.5
 20
343.82
 30
0.0
 11
3000.0
 21
343.82
 31
0.0
  0
LINE
  5
232
100
AcDbEntity
  8
2
  6
Continuous
 62
   174
100
AcDbLine
 10
600.0
 20
485.7
 30
0.0
 11
500.0
 21
485.7
 31
0.0
  0
LINE
  5
233
100
AcDbEntity
  8
2
  6
Continuous
 62
   174
100
AcDbLine
 10
500.0
 20
485.7
 30
0.0
 11
500.0
 21
469.7
 31
0.0
  0
LINE
  5
234
100
AcDbEntity
  8
2
  6
Continuous
 62
   174
100
AcDbLine
 10
500.0
 20
469.7
 30
0.0
 11
600.0
 21
469.7
 31
0.0
  0
LINE
  5
235
100
AcDbEntity
  8
2
  6
CENTER
 62
   174
100
AcDbLine
 10
517.5
 20
459.7
 30
0.0
 11
517.5
 21
495.7
 31
0.0
  0
LINE
  5
236
100
AcDbEntity
  8
2
  6
HIDDEN
 62
   174
100
AcDbLine
 10
527.0
 20
469.7
 30
0.0
 11
527.0
 21
485.7
 31
0.0
  0
LINE
  5
237
100
AcDbEntity
  8
2
  6
HIDDEN
 62
   174
100
AcDbLine
 10
508.0
 20
469.7
 30
0.0
 11
508.0
 21
485.7
 31
0.0
  0
LINE
  5
238
100
AcDbEntity
  8
2
  6
CENTER
 62
   174
100
AcDbLine
 10
600.0
 20
500.0
 30
0.0
 11
600.0
 21
282.89
 31
0.0
  0
LINE
  5
239
100
AcDbEntity
  8
2
  6
Continuous
 62
   174
100
AcDbLine
 10
527.5
 20
485.7
 30
0.0
 11
527.5
 21
490.0
 31
0.0
  0
LINE
  5
23A
100
AcDbEntity
  8
2
  6
Continuous
 62
   174
100
AcDbLine
 10
527.5
 20
487.0
 30
0.0
 11
600.0
 21
487.0
 31
0.0
  0
LINE
  5
23B
100
AcDbEntity
  8
2
  6
CENTER
 62
   174
100
AcDbLine
 10
529.0
 20
469.7
 30
0.0
 11
529.0
 21
322.6
 31
0.0
  0
LINE
  5
23C
100
AcDbEntity
  8
2
  6
Continuous
 62
   174
100
AcDbLine
 10
543.114549
 20
468.776095
 30
0.0
 11
535.678452
 21
461.415296
 31
0.0
  0
ARC
  5
23D
100
AcDbEntity
  8
2
  6
Continuous
 62
   174
100
AcDbCircle
 10
542.2
 20
469.7
 30
0.0
 40
1.3
100
AcDbArc
 50
-45.292514
 51
0.0
  0
ARC
  5
23E
100
AcDbEntity
  8
2
  6
Continuous
 62
   174
100
AcDbCircle
 10
538.0
 20
459.07
 30
0.0
 40
3.3
100
AcDbArc
 50
134.807852
 51
-137.567524
  0
ARC
  5
23F
100
AcDbEntity
  8
2
  6
Continuous
 62
   174
100
AcDbCircle
 10
538.0
 20
437.89
 30
0.0
 40
3.3
100
AcDbArc
 50
137.567661
 51
-137.568194
  0
LINE
  5
240
100
AcDbEntity
  8
2
  6
CENTER
 62
   174
100
AcDbLine
 10
534.7
 20
437.89
 30
0.0
 11
534.7
 21
354.41
 31
0.0
  0
LINE
  5
241
100
AcDbEntity
  8
2
  6
Continuous
 62
   174
100
AcDbLine
 10
538.0
 20
459.07
 30
0.0
 11
600.0
 21
459.07
 31
0.0
  0
LINE
  5
242
100
AcDbEntity
  8
2
  6
Continuous
 62
   174
100
AcDbLine
 10
540.5
 20
450.48
 30
0.0
 11
600.0
 21
450.48
 31
0.0
  0
LINE
  5
243
100
AcDbEntity
  8
2
  6
Continuous
 62
   174
100
AcDbLine
 10
540.5
 20
446.48
 30
0.0
 11
600.0
 21
446.48
 31
0.0
  0
LINE
  5
244
100
AcDbEntity
  8
2
  6
Continuous
 62
   174
100
AcDbLine
 10
538.0
 20
437.89
 30
0.0
 11
600.0
 21
437.89
 31
0.0
  0
LINE
  5
245
100
AcDbEntity
  8
2
  6
Continuous
 62
   174
100
AcDbLine
 10
540.5
 20
429.3
 30
0.0
 11
600.0
 21
429.3
 31
0.0
  0
LINE
  5
246
100
AcDbEntity
  8
2
  6
Continuous
 62
   174
100
AcDbLine
 10
540.5
 20
425.3
 30
0.0
 11
600.0
 21
425.3
 31
0.0
  0
LINE
  5
247
100
AcDbEntity
  8
2
  6
CENTER
 62
   174
100
AcDbLine
 10
535.5
 20
427.3
 30
0.0
 11
600.0
 21
427.3
 31
0.0
  0
ARC
  5
248
100
AcDbEntity
  8
2
  6
Continuous
 62
   174
100
AcDbCircle
 10
540.5
 20
427.3
 30
0.0
 40
2.0
100
AcDbArc
 50
90.0
 51
-90.0
  0
LINE
  5
249
100
AcDbEntity
  8
2
  6
Continuous
 62
   174
100
AcDbLine
 10
538.369338
 20
422.005
 30
0.0
 11
541.381442
 21
425.3
 31
0.0
  0
LINE
  5
24A
100
AcDbEntity
  8
2
  6
Continuous
 62
   174
100
AcDbLine
 10
541.381442
 20
429.3
 30
0.0
 11
535.564333
 21
435.66345
 31
0.0
  0
LINE
  5
24B
100
AcDbEntity
  8
2
  6
CENTER
 62
   174
100
AcDbLine
 10
535.5
 20
448.48
 30
0.0
 11
600.0
 21
448.48
 31
0.0
  0
ARC
  5
24C
100
AcDbEntity
  8
2
  6
Continuous
 62
   174
100
AcDbCircle
 10
540.5
 20
448.48
 30
0.0
 40
2.0
100
AcDbArc
 50
90.0
 51
-90.0
  0
LINE
  5
24D
100
AcDbEntity
  8
2
  6
Continuous
 62
   174
100
AcDbLine
 10
541.381442
 20
450.48
 30
0.0
 11
535.564333
 21
456.84345
 31
0.0
  0
LINE
  5
24E
100
AcDbEntity
  8
2
  6
Continuous
 62
   174
100
AcDbLine
 10
541.381442
 20
446.48
 30
0.0
 11
535.564333
 21
440.11655
 31
0.0
  0
CIRCLE
  5
24F
100
AcDbEntity
  8
2
  6
Continuous
 62
   174
100
AcDbCircle
 10
600.0
 20
708.766113
 30
0.0
 40
72.5
  0
CIRCLE
  5
250
100
AcDbEntity
  8
2
  6
Continuous
 62
   174
100
AcDbCircle
 10
600.0
 20
708.766113
 30
0.0
 40
56.5
  0
CIRCLE
  5
251
100
AcDbEntity
  8
2
  6
Continuous
 62
   174
100
AcDbCircle
 10
658.33631
 20
650.429804
 30
0.0
 40
9.5
  0
CIRCLE
  5
252
100
AcDbEntity
  8
2
  6
Continuous
 62
   174
100
AcDbCircle
 10
600.0
 20
626.266114
 30
0.0
 40
9.5
  0
CIRCLE
  5
253
100
AcDbEntity
  8
2
  6
Continuous
 62
   174
100
AcDbCircle
 10
541.663691
 20
650.429804
 30
0.0
 40
9.5
  0
CIRCLE
  5
254
100
AcDbEntity
  8
2
  6
Continuous
 62
   174
100
AcDbCircle
 10
517.5
 20
708.766114
 30
0.0
 40
9.5
  0
CIRCLE
  5
255
100
AcDbEntity
  8
2
  6
Continuous
 62
   174
100
AcDbCircle
 10
541.663691
 20
767.102423
 30
0.0
 40
9.5
  0
CIRCLE
  5
256
100
AcDbEntity
  8
2
  6
Continuous
 62
   174
100
AcDbCircle
 10
600.0
 20
791.266114
 30
0.0
 40
9.5
  0
CIRCLE
  5
257
100
AcDbEntity
  8
2
  6
Continuous
 62
   174
100
AcDbCircle
 10
658.33631
 20
767.102423
 30
0.0
 40
9.5
  0
CIRCLE
  5
258
100
AcDbEntity
  8
2
  6
Continuous
 62
   174
100
AcDbCircle
 10
682.5
 20
708.766113
 30
0.0
 40
9.5
  0
CIRCLE
  5
259
100
AcDbEntity
  8
2
  6
Continuous
 62
   174
100
AcDbCircle
 10
600.0
 20
708.766113
 30
0.0
 40
100.0
  0
LINE
  5
25A
100
AcDbEntity
  8
2
  6
CENTER
 62
   174
100
AcDbLine
 10
533.178409
 20
641.944522
 30
0.0
 11
550.148972
 21
658.915085
 31
0.0
  0
LINE
  5
25B
100
AcDbEntity
  8
2
  6
CENTER
 62
   174
100
AcDbLine
 10
666.821591
 20
641.944523
 30
0.0
 11
649.851028
 21
658.915085
 31
0.0
  0
LINE
  5
25C
100
AcDbEntity
  8
2
  6
CENTER
 62
   174
100
AcDbLine
 10
666.821591
 20
775.587704
 30
0.0
 11
649.851028
 21
758.617141
 31
0.0
  0
LINE
  5
25D
100
AcDbEntity
  8
2
  6
CENTER
 62
   174
100
AcDbLine
 10
533.178409
 20
775.587704
 30
0.0
 11
550.148972
 21
758.617142
 31
0.0
  0
LINE
  5
25E
100
AcDbEntity
  8
2
  6
CENTER
 62
   174
100
AcDbLine
 10
490.0
 20
708.766113
 30
0.0
 11
710.0
 21
708.766113
 31
0.0
  0
LINE
  5
25F
100
AcDbEntity
  8
2
  6
CENTER
 62
   174
100
AcDbLine
 10
600.0
 20
818.766113
 30
0.0
 11
600.0
 21
598.766113
 31
0.0
  0
CIRCLE
  5
260
100
AcDbEntity
  8
2
  6
CENTER
 62
   174
100
AcDbCircle
 10
600.0
 20
708.766113
 30
0.0
 40
82.5
  0
CIRCLE
  5
261
100
AcDbEntity
  8
2
  6
Continuous
 62
   174
100
AcDbCircle
 10
600.0
 20
708.766113
 30
0.0
 40
55.2
  0
LINE
  5
262
100
AcDbEntity
  8
2
  6
Continuous
 62
   174
100
AcDbLine
 10
900.0
 20
505.7
 30
0.0
 11
800.0
 21
505.7
 31
0.0
  0
LINE
  5
263
100
AcDbEntity
  8
2
  6
Continuous
 62
   174
100
AcDbLine
 10
800.0
 20
505.7
 30
0.0
 11
800.0
 21
489.7
 31
0.0
  0
LINE
  5
264
100
AcDbEntity
  8
2
  6
Continuous
 62
   174
100
AcDbLine
 10
800.0
 20
489.7
 30
0.0
 11
900.0
 21
489.7
 31
0.0
  0
LINE
  5
265
100
AcDbEntity
  8
2
  6
CENTER
 62
   174
100
AcDbLine
 10
817.5
 20
479.7
 30
0.0
 11
817.5
 21
515.7
 31
0.0
  0
LINE
  5
266
100
AcDbEntity
  8
2
  6
HIDDEN
 62
   174
100
AcDbLine
 10
827.0
 20
489.7
 30
0.0
 11
827.0
 21
505.7
 31
0.0
  0
LINE
  5
267
100
AcDbEntity
  8
2
  6
HIDDEN
 62
   174
100
AcDbLine
 10
808.0
 20
489.7
 30
0.0
 11
808.0
 21
505.7
 31
0.0
  0
LINE
  5
268
100
AcDbEntity
  8
2
  6
CENTER
 62
   174
100
AcDbLine
 10
900.0
 20
520.0
 30
0.0
 11
900.0
 21
282.89
 31
0.0
  0
LINE
  5
269
100
AcDbEntity
  8
2
  6
Continuous
 62
   174
100
AcDbLine
 10
827.5
 20
505.7
 30
0.0
 11
827.5
 21
510.0
 31
0.0
  0
LINE
  5
26A
100
AcDbEntity
  8
2
  6
Continuous
 62
   174
100
AcDbLine
 10
827.5
 20
507.0
 30
0.0
 11
900.0
 21
507.0
 31
0.0
  0
LINE
  5
26B
100
AcDbEntity
  8
2
  6
CENTER
 62
   174
100
AcDbLine
 10
829.0
 20
489.7
 30
0.0
 11
829.0
 21
322.6
 31
0.0
  0
LINE
  5
26C
100
AcDbEntity
  8
2
  6
Continuous
 62
   174
100
AcDbLine
 10
843.114549
 20
488.776095
 30
0.0
 11
835.678452
 21
481.415296
 31
0.0
  0
ARC
  5
26D
100
AcDbEntity
  8
2
  6
Continuous
 62
   174
100
AcDbCircle
 10
842.2
 20
489.7
 30
0.0
 40
1.3
100
AcDbArc
 50
-45.292514
 51
0.0
  0
ARC
  5
26E
100
AcDbEntity
  8
2
  6
Continuous
 62
   174
100
AcDbCircle
 10
838.0
 20
479.07
 30
0.0
 40
3.3
100
AcDbArc
 50
134.807852
 51
-137.567524
  0
ARC
  5
26F
100
AcDbEntity
  8
2
  6
Continuous
 62
   174
100
AcDbCircle
 10
838.0
 20
457.89
 30
0.0
 40
3.3
100
AcDbArc
 50
137.567661
 51
-137.568194
  0
LINE
  5
270
100
AcDbEntity
  8
2
  6
CENTER
 62
   174
100
AcDbLine
 10
834.7
 20
457.89
 30
0.0
 11
834.7
 21
354.41
 31
0.0
  0
LINE
  5
271
100
AcDbEntity
  8
2
  6
Continuous
 62
   174
100
AcDbLine
 10
838.0
 20
479.07
 30
0.0
 11
900.0
 21
479.07
 31
0.0
  0
LINE
  5
272
100
AcDbEntity
  8
2
  6
Continuous
 62
   174
100
AcDbLine
 10
840.5
 20
470.48
 30
0.0
 11
900.0
 21
470.48
 31
0.0
  0
LINE
  5
273
100
AcDbEntity
  8
2
  6
Continuous
 62
   174
100
AcDbLine
 10
840.5
 20
466.48
 30
0.0
 11
900.0
 21
466.48
 31
0.0
  0
LINE
  5
274
100
AcDbEntity
  8
2
  6
Continuous
 62
   174
100
AcDbLine
 10
838.0
 20
457.89
 30
0.0
 11
900.0
 21
457.89
 31
0.0
  0
LINE
  5
275
100
AcDbEntity
  8
2
  6
Continuous
 62
   174
100
AcDbLine
 10
840.5
 20
449.3
 30
0.0
 11
900.0
 21
449.3
 31
0.0
  0
LINE
  5
276
100
AcDbEntity
  8
2
  6
Continuous
 62
   174
100
AcDbLine
 10
840.5
 20
445.3
 30
0.0
 11
900.0
 21
445.3
 31
0.0
  0
LINE
  5
277
100
AcDbEntity
  8
2
  6
CENTER
 62
   174
100
AcDbLine
 10
835.5
 20
447.3
 30
0.0
 11
900.0
 21
447.3
 31
0.0
  0
ARC
  5
278
100
AcDbEntity
  8
2
  6
Continuous
 62
   174
100
AcDbCircle
 10
840.5
 20
447.3
 30
0.0
 40
2.0
100
AcDbArc
 50
90.0
 51
-90.0
  0
LINE
  5
279
100
AcDbEntity
  8
2
  6
Continuous
 62
   174
100
AcDbLine
 10
838.369338
 20
442.005
 30
0.0
 11
841.381442
 21
445.3
 31
0.0
  0
LINE
  5
27A
100
AcDbEntity
  8
2
  6
Continuous
 62
   174
100
AcDbLine
 10
841.381442
 20
449.3
 30
0.0
 11
835.564333
 21
455.66345
 31
0.0
  0
LINE
  5
27B
100
AcDbEntity
  8
2
  6
CENTER
 62
   174
100
AcDbLine
 10
835.5
 20
468.48
 30
0.0
 11
900.0
 21
468.48
 31
0.0
  0
ARC
  5
27C
100
AcDbEntity
  8
2
  6
Continuous
 62
   174
100
AcDbCircle
 10
840.5
 20
468.48
 30
0.0
 40
2.0
100
AcDbArc
 50
90.0
 51
-90.0
  0
LINE
  5
27D
100
AcDbEntity
  8
2
  6
Continuous
 62
   174
100
AcDbLine
 10
841.381442
 20
470.48
 30
0.0
 11
835.564333
 21
476.84345
 31
0.0
  0
LINE
  5
27E
100
AcDbEntity
  8
2
  6
Continuous
 62
   174
100
AcDbLine
 10
841.381442
 20
466.48
 30
0.0
 11
835.564333
 21
460.11655
 31
0.0
  0
CIRCLE
  5
27F
100
AcDbEntity
  8
2
  6
Continuous
 62
   174
100
AcDbCircle
 10
900.0
 20
728.766113
 30
0.0
 40
72.5
  0
CIRCLE
  5
280
100
AcDbEntity
  8
2
  6
Continuous
 62
   174
100
AcDbCircle
 10
900.0
 20
728.766113
 30
0.0
 40
56.5
  0
CIRCLE
  5
281
100
AcDbEntity
  8
2
  6
Continuous
 62
   174
100
AcDbCircle
 10
958.33631
 20
670.429804
 30
0.0
 40
9.5
  0
CIRCLE
  5
282
100
AcDbEntity
  8
2
  6
Continuous
 62
   174
100
AcDbCircle
 10
900.0
 20
646.266114
 30
0.0
 40
9.5
  0
CIRCLE
  5
283
100
AcDbEntity
  8
2
  6
Continuous
 62
   174
100
AcDbCircle
 10
841.663691
 20
670.429804
 30
0.0
 40
9.5
  0
CIRCLE
  5
284
100
AcDbEntity
  8
2
  6
Continuous
 62
   174
100
AcDbCircle
 10
817.5
 20
728.766114
 30
0.0
 40
9.5
  0
CIRCLE
  5
285
100
AcDbEntity
  8
2
  6
Continuous
 62
   174
100
AcDbCircle
 10
841.663691
 20
787.102423
 30
0.0
 40
9.5
  0
CIRCLE
  5
286
100
AcDbEntity
  8
2
  6
Continuous
 62
   174
100
AcDbCircle
 10
900.0
 20
811.266114
 30
0.0
 40
9.5
  0
CIRCLE
  5
287
100
AcDbEntity
  8
2
  6
Continuous
 62
   174
100
AcDbCircle
 10
958.33631
 20
787.102423
 30
0.0
 40
9.5
  0
CIRCLE
  5
288
100
AcDbEntity
  8
2
  6
Continuous
 62
   174
100
AcDbCircle
 10
982.5
 20
728.766113
 30
0.0
 40
9.5
  0
CIRCLE
  5
289
100
AcDbEntity
  8
2
  6
Continuous
 62
   174
100
AcDbCircle
 10
900.0
 20
728.766113
 30
0.0
 40
100.0
  0
LINE
  5
28A
100
AcDbEntity
  8
2
  6
CENTER
 62
   174
100
AcDbLine
 10
833.178409
 20
661.944522
 30
0.0
 11
850.148972
 21
678.915085
 31
0.0
  0
LINE
  5
28B
100
AcDbEntity
  8
2
  6
CENTER
 62
   174
100
AcDbLine
 10
966.821591
 20
661.944523
 30
0.0
 11
949.851028
 21
678.915085
 31
0.0
  0
LINE
  5
28C
100
AcDbEntity
  8
2
  6
CENTER
 62
   174
100
AcDbLine
 10
966.821591
 20
795.587704
 30
0.0
 11
949.851028
 21
778.617141
 31
0.0
  0
LINE
  5
28D
100
AcDbEntity
  8
2
  6
CENTER
 62
   174
100
AcDbLine
 10
833.178409
 20
795.587704
 30
0.0
 11
850.148972
 21
778.617142
 31
0.0
  0
LINE
  5
28E
100
AcDbEntity
  8
2
  6
CENTER
 62
   174
100
AcDbLine
 10
790.0
 20
728.766113
 30
0.0
 11
1010.0
 21
728.766113
 31
0.0
  0
LINE
  5
28F
100
AcDbEntity
  8
2
  6
CENTER
 62
   174
100
AcDbLine
 10
900.0
 20
838.766113
 30
0.0
 11
900.0
 21
618.766113
 31
0.0
  0
CIRCLE
  5
290
100
AcDbEntity
  8
2
  6
CENTER
 62
   174
100
AcDbCircle
 10
900.0
 20
728.766113
 30
0.0
 40
82.5
  0
CIRCLE
  5
291
100
AcDbEntity
  8
2
  6
Continuous
 62
   174
100
AcDbCircle
 10
900.0
 20
728.766113
 30
0.0
 40
55.2
  0
LINE
  5
292
100
AcDbEntity
  8
2
  6
Continuous
 62
   174
100
AcDbLine
 10
1200.0
 20
520.7
 30
0.0
 11
1100.0
 21
520.7
 31
0.0
  0
LINE
  5
293
100
AcDbEntity
  8
2
  6
Continuous
 62
   174
100
AcDbLine
 10
1100.0
 20
520.7
 30
0.0
 11
1100.0
 21
504.7
 31
0.0
  0
LINE
  5
294
100
AcDbEntity
  8
2
  6
Continuous
 62
   174
100
AcDbLine
 10
1100.0
 20
504.7
 30
0.0
 11
1200.0
 21
504.7
 31
0.0
  0
LINE
  5
295
100
AcDbEntity
  8
2
  6
CENTER
 62
   174
100
AcDbLine
 10
1117.5
 20
494.7
 30
0.0
 11
1117.5
 21
530.7
 31
0.0
  0
LINE
  5
296
100
AcDbEntity
  8
2
  6
HIDDEN
 62
   174
100
AcDbLine
 10
1127.0
 20
504.7
 30
0.0
 11
1127.0
 21
520.7
 31
0.0
  0
LINE
  5
297
100
AcDbEntity
  8
2
  6
HIDDEN
 62
   174
100
AcDbLine
 10
1108.0
 20
504.7
 30
0.0
 11
1108.0
 21
520.7
 31
0.0
  0
LINE
  5
298
100
AcDbEntity
  8
2
  6
CENTER
 62
   174
100
AcDbLine
 10
1200.0
 20
535.0
 30
0.0
 11
1200.0
 21
282.89
 31
0.0
  0
LINE
  5
299
100
AcDbEntity
  8
2
  6
Continuous
 62
   174
100
AcDbLine
 10
1127.5
 20
520.7
 30
0.0
 11
1127.5
 21
525.0
 31
0.0
  0
LINE
  5
29A
100
AcDbEntity
  8
2
  6
Continuous
 62
   174
100
AcDbLine
 10
1127.5
 20
522.0
 30
0.0
 11
1200.0
 21
522.0
 31
0.0
  0
LINE
  5
29B
100
AcDbEntity
  8
2
  6
CENTER
 62
   174
100
AcDbLine
 10
1129.0
 20
504.7
 30
0.0
 11
1129.0
 21
322.6
 31
0.0
  0
LINE
  5
29C
100
AcDbEntity
  8
2
  6
Continuous
 62
   174
100
AcDbLine
 10
1143.114549
 20
503.776095
 30
0.0
 11
1135.678452
 21
496.415296
 31
0.0
  0
ARC
  5
29D
100
AcDbEntity
  8
2
  6
Continuous
 62
   174
100
AcDbCircle
 10
1142.2
 20
504.7
 30
0.0
 40
1.3
100
AcDbArc
 50
-45.292514
 51
0.0
  0
ARC
  5
29E
100
AcDbEntity
  8
2
  6
Continuous
 62
   174
100
AcDbCircle
 10
1138.0
 20
494.07
 30
0.0
 40
3.3
100
AcDbArc
 50
134.807852
 51
-137.567524
  0
ARC
  5
29F
100
AcDbEntity
  8
2
  6
Continuous
 62
   174
100
AcDbCircle
 10
1138.0
 20
472.89
 30
0.0
 40
3.3
100
AcDbArc
 50
137.567661
 51
-137.568194
  0
LINE
  5
2A0
100
AcDbEntity
  8
2
  6
CENTER
 62
   174
100
AcDbLine
 10
1134.7
 20
472.89
 30
0.0
 11
1134.7
 21
354.41
 31
0.0
  0
LINE
  5
2A1
100
AcDbEntity
  8
2
  6
Continuous
 62
   174
100
AcDbLine
 10
1138.0
 20
494.07
 30
0.0
 11
1200.0
 21
494.07
 31
0.0
  0
LINE
  5
2A2
100
AcDbEntity
  8
2
  6
Continuous
 62
   174
100
AcDbLine
 10
1140.5
 20
485.48
 30
0.0
 11
1200.0
 21
485.48
 31
0.0
  0
LINE
  5
2A3
100
AcDbEntity
  8
2
  6
Continuous
 62
   174
100
AcDbLine
 10
1140.5
 20
481.48
 30
0.0
 11
1200.0
 21
481.48
 31
0.0
  0
LINE
  5
2A4
100
AcDbEntity
  8
2
  6
Continuous
 62
   174
100
AcDbLine
 10
1138.0
 20
472.89
 30
0.0
 11
1200.0
 21
472.89
 31
0.0
  0
LINE
  5
2A5
100
AcDbEntity
  8
2
  6
Continuous
 62
   174
100
AcDbLine
 10
1140.5
 20
464.3
 30
0.0
 11
1200.0
 21
464.3
 31
0.0
  0
LINE
  5
2A6
100
AcDbEntity
  8
2
  6
Continuous
 62
   174
100
AcDbLine
 10
1140.5
 20
460.3
 30
0.0
 11
1200.0
 21
460.3
 31
0.0
  0
LINE
  5
2A7
100
AcDbEntity
  8
2
  6
CENTER
 62
   174
100
AcDbLine
 10
1135.5
 20
462.3
 30
0.0
 11
1200.0
 21
462.3
 31
0.0
  0
ARC
  5
2A8
100
AcDbEntity
  8
2
  6
Continuous
 62
   174
100
AcDbCircle
 10
1140.5
 20
462.3
 30
0.0
 40
2.0
100
AcDbArc
 50
90.0
 51
-90.0
  0
LINE
  5
2A9
100
AcDbEntity
  8
2
  6
Continuous
 62
   174
100
AcDbLine
 10
1138.369338
 20
457.005
 30
0.0
 11
1141.381442
 21
460.3
 31
0.0
  0
LINE
  5
2AA
100
AcDbEntity
  8
2
  6
Continuous
 62
   174
100
AcDbLine
 10
1141.381442
 20
464.3
 30
0.0
 11
1135.564333
 21
470.66345
 31
0.0
  0
LINE
  5
2AB
100
AcDbEntity
  8
2
  6
CENTER
 62
   174
100
AcDbLine
 10
1135.5
 20
483.48
 30
0.0
 11
1200.0
 21
483.48
 31
0.0
  0
ARC
  5
2AC
100
AcDbEntity
  8
2
  6
Continuous
 62
   174
100
AcDbCircle
 10
1140.5
 20
483.48
 30
0.0
 40
2.0
100
AcDbArc
 50
90.0
 51
-90.0
  0
LINE
  5
2AD
100
AcDbEntity
  8
2
  6
Continuous
 62
   174
100
AcDbLine
 10
1141.381442
 20
485.48
 30
0.0
 11
1135.564333
 21
491.84345
 31
0.0
  0
LINE
  5
2AE
100
AcDbEntity
  8
2
  6
Continuous
 62
   174
100
AcDbLine
 10
1141.381442
 20
481.48
 30
0.0
 11
1135.564333
 21
475.11655
 31
0.0
  0
CIRCLE
  5
2AF
100
AcDbEntity
  8
2
  6
Continuous
 62
   174
100
AcDbCircle
 10
1200.0
 20
743.766113
 30
0.0
 40
72.5
  0
CIRCLE
  5
2B0
100
AcDbEntity
  8
2
  6
Continuous
 62
   174
100
AcDbCircle
 10
1200.0
 20
743.766113
 30
0.0
 40
56.5
  0
CIRCLE
  5
2B1
100
AcDbEntity
  8
2
  6
Continuous
 62
   174
100
AcDbCircle
 10
1258.33631
 20
685.429804
 30
0.0
 40
9.5
  0
CIRCLE
  5
2B2
100
AcDbEntity
  8
2
  6
Continuous
 62
   174
100
AcDbCircle
 10
1200.0
 20
661.266114
 30
0.0
 40
9.5
  0
CIRCLE
  5
2B3
100
AcDbEntity
  8
2
  6
Continuous
 62
   174
100
AcDbCircle
 10
1141.663691
 20
685.429804
 30
0.0
 40
9.5
  0
CIRCLE
  5
2B4
100
AcDbEntity
  8
2
  6
Continuous
 62
   174
100
AcDbCircle
 10
1117.5
 20
743.766114
 30
0.0
 40
9.5
  0
CIRCLE
  5
2B5
100
AcDbEntity
  8
2
  6
Continuous
 62
   174
100
AcDbCircle
 10
1141.663691
 20
802.102423
 30
0.0
 40
9.5
  0
CIRCLE
  5
2B6
100
AcDbEntity
  8
2
  6
Continuous
 62
   174
100
AcDbCircle
 10
1200.0
 20
826.266114
 30
0.0
 40
9.5
  0
CIRCLE
  5
2B7
100
AcDbEntity
  8
2
  6
Continuous
 62
   174
100
AcDbCircle
 10
1258.33631
 20
802.102423
 30
0.0
 40
9.5
  0
CIRCLE
  5
2B8
100
AcDbEntity
  8
2
  6
Continuous
 62
   174
100
AcDbCircle
 10
1282.5
 20
743.766113
 30
0.0
 40
9.5
  0
CIRCLE
  5
2B9
100
AcDbEntity
  8
2
  6
Continuous
 62
   174
100
AcDbCircle
 10
1200.0
 20
743.766113
 30
0.0
 40
100.0
  0
LINE
  5
2BA
100
AcDbEntity
  8
2
  6
CENTER
 62
   174
100
AcDbLine
 10
1133.178409
 20
676.944522
 30
0.0
 11
1150.148972
 21
693.915085
 31
0.0
  0
LINE
  5
2BB
100
AcDbEntity
  8
2
  6
CENTER
 62
   174
100
AcDbLine
 10
1266.821591
 20
676.944523
 30
0.0
 11
1249.851028
 21
693.915085
 31
0.0
  0
LINE
  5
2BC
100
AcDbEntity
  8
2
  6
CENTER
 62
   174
100
AcDbLine
 10
1266.821591
 20
810.587704
 30
0.0
 11
1249.851028
 21
793.617141
 31
0.0
  0
LINE
  5
2BD
100
AcDbEntity
  8
2
  6
CENTER
 62
   174
100
AcDbLine
 10
1133.178409
 20
810.587704
 30
0.0
 11
1150.148972
 21
793.617142
 31
0.0
  0
LINE
  5
2BE
100
AcDbEntity
  8
2
  6
CENTER
 62
   174
100
AcDbLine
 10
1090.0
 20
743.766113
 30
0.0
 11
1310.0
 21
743.766113
 31
0.0
  0
LINE
  5
2BF
100
AcDbEntity
  8
2
  6
CENTER
 62
   174
100
AcDbLine
 10
1200.0
 20
853.766113
 30
0.0
 11
1200.0
 21
633.766113
 31
0.0
  0
CIRCLE
  5
2C0
100
AcDbEntity
  8
2
  6
CENTER
 62
   174
100
AcDbCircle
 10
1200.0
 20
743.766113
 30
0.0
 40
82.5
  0
CIRCLE
  5
2C1
100
AcDbEntity
  8
2
  6
Continuous
 62
   174
100
AcDbCircle
 10
1200.0
 20
743.766113
 30
0.0
 40
55.2
  0
LINE
  5
2C2
100
AcDbEntity
  8
2
  6
Continuous
 62
   174
100
AcDbLine
 10
1500.0
 20
530.7
 30
0.0
 11
1400.0
 21
530.7
 31
0.0
  0
LINE
  5
2C3
100
AcDbEntity
  8
2
  6
Continuous
 62
   174
100
AcDbLine
 10
1400.0
 20
530.7
 30
0.0
 11
1400.0
 21
514.7
 31
0.0
  0
LINE
  5
2C4
100
AcDbEntity
  8
2
  6
Continuous
 62
   174
100
AcDbLine
 10
1400.0
 20
514.7
 30
0.0
 11
1500.0
 21
514.7
 31
0.0
  0
LINE
  5
2C5
100
AcDbEntity
  8
2
  6
CENTER
 62
   174
100
AcDbLine
 10
1417.5
 20
504.7
 30
0.0
 11
1417.5
 21
540.7
 31
0.0
  0
LINE
  5
2C6
100
AcDbEntity
  8
2
  6
HIDDEN
 62
   174
100
AcDbLine
 10
1427.0
 20
514.7
 30
0.0
 11
1427.0
 21
530.7
 31
0.0
  0
LINE
  5
2C7
100
AcDbEntity
  8
2
  6
HIDDEN
 62
   174
100
AcDbLine
 10
1408.0
 20
514.7
 30
0.0
 11
1408.0
 21
530.7
 31
0.0
  0
LINE
  5
2C8
100
AcDbEntity
  8
2
  6
CENTER
 62
   174
100
AcDbLine
 10
1500.0
 20
545.0
 30
0.0
 11
1500.0
 21
282.89
 31
0.0
  0
LINE
  5
2C9
100
AcDbEntity
  8
2
  6
Continuous
 62
   174
100
AcDbLine
 10
1427.5
 20
530.7
 30
0.0
 11
1427.5
 21
535.0
 31
0.0
  0
LINE
  5
2CA
100
AcDbEntity
  8
2
  6
Continuous
 62
   174
100
AcDbLine
 10
1427.5
 20
532.0
 30
0.0
 11
1500.0
 21
532.0
 31
0.0
  0
LINE
  5
2CB
100
AcDbEntity
  8
2
  6
CENTER
 62
   174
100
AcDbLine
 10
1429.0
 20
514.7
 30
0.0
 11
1429.0
 21
322.6
 31
0.0
  0
LINE
  5
2CC
100
AcDbEntity
  8
2
  6
Continuous
 62
   174
100
AcDbLine
 10
1443.114549
 20
513.776095
 30
0.0
 11
1435.678452
 21
506.415296
 31
0.0
  0
ARC
  5
2CD
100
AcDbEntity
  8
2
  6
Continuous
 62
   174
100
AcDbCircle
 10
1442.2
 20
514.7
 30
0.0
 40
1.3
100
AcDbArc
 50
-45.292514
 51
0.0
  0
ARC
  5
2CE
100
AcDbEntity
  8
2
  6
Continuous
 62
   174
100
AcDbCircle
 10
1438.0
 20
504.07
 30
0.0
 40
3.3
100
AcDbArc
 50
134.807852
 51
-137.567524
  0
ARC
  5
2CF
100
AcDbEntity
  8
2
  6
Continuous
 62
   174
100
AcDbCircle
 10
1438.0
 20
482.89
 30
0.0
 40
3.3
100
AcDbArc
 50
137.567661
 51
-137.568194
  0
LINE
  5
2D0
100
AcDbEntity
  8
2
  6
CENTER
 62
   174
100
AcDbLine
 10
1434.7
 20
482.89
 30
0.0
 11
1434.7
 21
354.41
 31
0.0
  0
LINE
  5
2D1
100
AcDbEntity
  8
2
  6
Continuous
 62
   174
100
AcDbLine
 10
1438.0
 20
504.07
 30
0.0
 11
1500.0
 21
504.07
 31
0.0
  0
LINE
  5
2D2
100
AcDbEntity
  8
2
  6
Continuous
 62
   174
100
AcDbLine
 10
1440.5
 20
495.48
 30
0.0
 11
1500.0
 21
495.48
 31
0.0
  0
LINE
  5
2D3
100
AcDbEntity
  8
2
  6
Continuous
 62
   174
100
AcDbLine
 10
1440.5
 20
491.48
 30
0.0
 11
1500.0
 21
491.48
 31
0.0
  0
LINE
  5
2D4
100
AcDbEntity
  8
2
  6
Continuous
 62
   174
100
AcDbLine
 10
1438.0
 20
482.89
 30
0.0
 11
1500.0
 21
482.89
 31
0.0
  0
LINE
  5
2D5
100
AcDbEntity
  8
2
  6
Continuous
 62
   174
100
AcDbLine
 10
1440.5
 20
474.3
 30
0.0
 11
1500.0
 21
474.3
 31
0.0
  0
LINE
  5
2D6
100
AcDbEntity
  8
2
  6
Continuous
 62
   174
100
AcDbLine
 10
1440.5
 20
470.3
 30
0.0
 11
1500.0
 21
470.3
 31
0.0
  0
LINE
  5
2D7
100
AcDbEntity
  8
2
  6
CENTER
 62
   174
100
AcDbLine
 10
1435.5
 20
472.3
 30
0.0
 11
1500.0
 21
472.3
 31
0.0
  0
ARC
  5
2D8
100
AcDbEntity
  8
2
  6
Continuous
 62
   174
100
AcDbCircle
 10
1440.5
 20
472.3
 30
0.0
 40
2.0
100
AcDbArc
 50
90.0
 51
-90.0
  0
LINE
  5
2D9
100
AcDbEntity
  8
2
  6
Continuous
 62
   174
100
AcDbLine
 10
1438.369338
 20
467.005
 30
0.0
 11
1441.381442
 21
470.3
 31
0.0
  0
LINE
  5
2DA
100
AcDbEntity
  8
2
  6
Continuous
 62
   174
100
AcDbLine
 10
1441.381442
 20
474.3
 30
0.0
 11
1435.564333
 21
480.66345
 31
0.0
  0
LINE
  5
2DB
100
AcDbEntity
  8
2
  6
CENTER
 62
   174
100
AcDbLine
 10
1435.5
 20
493.48
 30
0.0
 11
1500.0
 21
493.48
 31
0.0
  0
ARC
  5
2DC
100
AcDbEntity
  8
2
  6
Continuous
 62
   174
100
AcDbCircle
 10
1440.5
 20
493.48
 30
0.0
 40
2.0
100
AcDbArc
 50
90.0
 51
-90.0
  0
LINE
  5
2DD
100
AcDbEntity
  8
2
  6
Continuous
 62
   174
100
AcDbLine
 10
1441.381442
 20
495.48
 30
0.0
 11
1435.564333
 21
501.84345
 31
0.0
  0
LINE
  5
2DE
100
AcDbEntity
  8
2
  6
Continuous
 62
   174
100
AcDbLine
 10
1441.381442
 20
491.48
 30
0.0
 11
1435.564333
 21
485.11655
 31
0.0
  0
CIRCLE
  5
2DF
100
AcDbEntity
  8
2
  6
Continuous
 62
   174
100
AcDbCircle
 10
1500.0
 20
753.766113
 30
0.0
 40
72.5
  0
CIRCLE
  5
2E0
100
AcDbEntity
  8
2
  6
Continuous
 62
   174
100
AcDbCircle
 10
1500.0
 20
753.766113
 30
0.0
 40
56.5
  0
CIRCLE
  5
2E1
100
AcDbEntity
  8
2
  6
Continuous
 62
   174
100
AcDbCircle
 10
1558.33631
 20
695.429804
 30
0.0
 40
9.5
  0
CIRCLE
  5
2E2
100
AcDbEntity
  8
2
  6
Continuous
 62
   174
100
AcDbCircle
 10
1500.0
 20
671.266114
 30
0.0
 40
9.5
  0
CIRCLE
  5
2E3
100
AcDbEntity
  8
2
  6
Continuous
 62
   174
100
AcDbCircle
 10
1441.663691
 20
695.429804
 30
0.0
 40
9.5
  0
CIRCLE
  5
2E4
100
AcDbEntity
  8
2
  6
Continuous
 62
   174
100
AcDbCircle
 10
1417.5
 20
753.766114
 30
0.0
 40
9.5
  0
CIRCLE
  5
2E5
100
AcDbEntity
  8
2
  6
Continuous
 62
   174
100
AcDbCircle
 10
1441.663691
 20
812.102423
 30
0.0
 40
9.5
  0
CIRCLE
  5
2E6
100
AcDbEntity
  8
2
  6
Continuous
 62
   174
100
AcDbCircle
 10
1500.0
 20
836.266114
 30
0.0
 40
9.5
  0
CIRCLE
  5
2E7
100
AcDbEntity
  8
2
  6
Continuous
 62
   174
100
AcDbCircle
 10
1558.33631
 20
812.102423
 30
0.0
 40
9.5
  0
CIRCLE
  5
2E8
100
AcDbEntity
  8
2
  6
Continuous
 62
   174
100
AcDbCircle
 10
1582.5
 20
753.766113
 30
0.0
 40
9.5
  0
CIRCLE
  5
2E9
100
AcDbEntity
  8
2
  6
Continuous
 62
   174
100
AcDbCircle
 10
1500.0
 20
753.766113
 30
0.0
 40
100.0
  0
LINE
  5
2EA
100
AcDbEntity
  8
2
  6
CENTER
 62
   174
100
AcDbLine
 10
1433.178409
 20
686.944522
 30
0.0
 11
1450.148972
 21
703.915085
 31
0.0
  0
LINE
  5
2EB
100
AcDbEntity
  8
2
  6
CENTER
 62
   174
100
AcDbLine
 10
1566.821591
 20
686.944523
 30
0.0
 11
1549.851028
 21
703.915085
 31
0.0
  0
LINE
  5
2EC
100
AcDbEntity
  8
2
  6
CENTER
 62
   174
100
AcDbLine
 10
1566.821591
 20
820.587704
 30
0.0
 11
1549.851028
 21
803.617141
 31
0.0
  0
LINE
  5
2ED
100
AcDbEntity
  8
2
  6
CENTER
 62
   174
100
AcDbLine
 10
1433.178409
 20
820.587704
 30
0.0
 11
1450.148972
 21
803.617142
 31
0.0
  0
LINE
  5
2EE
100
AcDbEntity
  8
2
  6
CENTER
 62
   174
100
AcDbLine
 10
1390.0
 20
753.766113
 30
0.0
 11
1610.0
 21
753.766113
 31
0.0
  0
LINE
  5
2EF
100
AcDbEntity
  8
2
  6
CENTER
 62
   174
100
AcDbLine
 10
1500.0
 20
863.766113
 30
0.0
 11
1500.0
 21
643.766113
 31
0.0
  0
CIRCLE
  5
2F0
100
AcDbEntity
  8
2
  6
CENTER
 62
   174
100
AcDbCircle
 10
1500.0
 20
753.766113
 30
0.0
 40
82.5
  0
CIRCLE
  5
2F1
100
AcDbEntity
  8
2
  6
Continuous
 62
   174
100
AcDbCircle
 10
1500.0
 20
753.766113
 30
0.0
 40
55.2
  0
LINE
  5
2F2
100
AcDbEntity
  8
2
  6
Continuous
 62
   174
100
AcDbLine
 10
1800.0
 20
550.7
 30
0.0
 11
1700.0
 21
550.7
 31
0.0
  0
LINE
  5
2F3
100
AcDbEntity
  8
2
  6
Continuous
 62
   174
100
AcDbLine
 10
1700.0
 20
550.7
 30
0.0
 11
1700.0
 21
534.7
 31
0.0
  0
LINE
  5
2F4
100
AcDbEntity
  8
2
  6
Continuous
 62
   174
100
AcDbLine
 10
1700.0
 20
534.7
 30
0.0
 11
1800.0
 21
534.7
 31
0.0
  0
LINE
  5
2F5
100
AcDbEntity
  8
2
  6
CENTER
 62
   174
100
AcDbLine
 10
1717.5
 20
524.7
 30
0.0
 11
1717.5
 21
560.7
 31
0.0
  0
LINE
  5
2F6
100
AcDbEntity
  8
2
  6
HIDDEN
 62
   174
100
AcDbLine
 10
1727.0
 20
534.7
 30
0.0
 11
1727.0
 21
550.7
 31
0.0
  0
LINE
  5
2F7
100
AcDbEntity
  8
2
  6
HIDDEN
 62
   174
100
AcDbLine
 10
1708.0
 20
534.7
 30
0.0
 11
1708.0
 21
550.7
 31
0.0
  0
LINE
  5
2F8
100
AcDbEntity
  8
2
  6
CENTER
 62
   174
100
AcDbLine
 10
1800.0
 20
565.0
 30
0.0
 11
1800.0
 21
282.89
 31
0.0
  0
LINE
  5
2F9
100
AcDbEntity
  8
2
  6
Continuous
 62
   174
100
AcDbLine
 10
1727.5
 20
550.7
 30
0.0
 11
1727.5
 21
555.0
 31
0.0
  0
LINE
  5
2FA
100
AcDbEntity
  8
2
  6
Continuous
 62
   174
100
AcDbLine
 10
1727.5
 20
552.0
 30
0.0
 11
1800.0
 21
552.0
 31
0.0
  0
LINE
  5
2FB
100
AcDbEntity
  8
2
  6
CENTER
 62
   174
100
AcDbLine
 10
1729.0
 20
534.7
 30
0.0
 11
1729.0
 21
322.6
 31
0.0
  0
LINE
  5
2FC
100
AcDbEntity
  8
2
  6
Continuous
 62
   174
100
AcDbLine
 10
1743.114549
 20
533.776095
 30
0.0
 11
1735.678452
 21
526.415296
 31
0.0
  0
ARC
  5
2FD
100
AcDbEntity
  8
2
  6
Continuous
 62
   174
100
AcDbCircle
 10
1742.2
 20
534.7
 30
0.0
 40
1.3
100
AcDbArc
 50
-45.292514
 51
0.0
  0
ARC
  5
2FE
100
AcDbEntity
  8
2
  6
Continuous
 62
   174
100
AcDbCircle
 10
1738.0
 20
524.07
 30
0.0
 40
3.3
100
AcDbArc
 50
134.807852
 51
-137.567524
  0
ARC
  5
2FF
100
AcDbEntity
  8
2
  6
Continuous
 62
   174
100
AcDbCircle
 10
1738.0
 20
502.89
 30
0.0
 40
3.3
100
AcDbArc
 50
137.567661
 51
-137.568194
  0
LINE
  5
300
100
AcDbEntity
  8
2
  6
CENTER
 62
   174
100
AcDbLine
 10
1734.7
 20
502.89
 30
0.0
 11
1734.7
 21
354.41
 31
0.0
  0
LINE
  5
301
100
AcDbEntity
  8
2
  6
Continuous
 62
   174
100
AcDbLine
 10
1738.0
 20
524.07
 30
0.0
 11
1800.0
 21
524.07
 31
0.0
  0
LINE
  5
302
100
AcDbEntity
  8
2
  6
Continuous
 62
   174
100
AcDbLine
 10
1740.5
 20
515.48
 30
0.0
 11
1800.0
 21
515.48
 31
0.0
  0
LINE
  5
303
100
AcDbEntity
  8
2
  6
Continuous
 62
   174
100
AcDbLine
 10
1740.5
 20
511.48
 30
0.0
 11
1800.0
 21
511.48
 31
0.0
  0
LINE
  5
304
100
AcDbEntity
  8
2
  6
Continuous
 62
   174
100
AcDbLine
 10
1738.0
 20
502.89
 30
0.0
 11
1800.0
 21
502.89
 31
0.0
  0
LINE
  5
305
100
AcDbEntity
  8
2
  6
Continuous
 62
   174
100
AcDbLine
 10
1740.5
 20
494.3
 30
0.0
 11
1800.0
 21
494.3
 31
0.0
  0
LINE
  5
306
100
AcDbEntity
  8
2
  6
Continuous
 62
   174
100
AcDbLine
 10
1740.5
 20
490.3
 30
0.0
 11
1800.0
 21
490.3
 31
0.0
  0
LINE
  5
307
100
AcDbEntity
  8
2
  6
CENTER
 62
   174
100
AcDbLine
 10
1735.5
 20
492.3
 30
0.0
 11
1800.0
 21
492.3
 31
0.0
  0
ARC
  5
308
100
AcDbEntity
  8
2
  6
Continuous
 62
   174
100
AcDbCircle
 10
1740.5
 20
492.3
 30
0.0
 40
2.0
100
AcDbArc
 50
90.0
 51
-90.0
  0
LINE
  5
309
100
AcDbEntity
  8
2
  6
Continuous
 62
   174
100
AcDbLine
 10
1738.369338
 20
487.005
 30
0.0
 11
1741.381442
 21
490.3
 31
0.0
  0
LINE
  5
30A
100
AcDbEntity
  8
2
  6
Continuous
 62
   174
100
AcDbLine
 10
1741.381442
 20
494.3
 30
0.0
 11
1735.564333
 21
500.66345
 31
0.0
  0
LINE
  5
30B
100
AcDbEntity
  8
2
  6
CENTER
 62
   174
100
AcDbLine
 10
1735.5
 20
513.48
 30
0.0
 11
1800.0
 21
513.48
 31
0.0
  0
ARC
  5
30C
100
AcDbEntity
  8
2
  6
Continuous
 62
   174
100
AcDbCircle
 10
1740.5
 20
513.48
 30
0.0
 40
2.0
100
AcDbArc
 50
90.0
 51
-90.0
  0
LINE
  5
30D
100
AcDbEntity
  8
2
  6
Continuous
 62
   174
100
AcDbLine
 10
1741.381442
 20
515.48
 30
0.0
 11
1735.564333
 21
521.84345
 31
0.0
  0
LINE
  5
30E
100
AcDbEntity
  8
2
  6
Continuous
 62
   174
100
AcDbLine
 10
1741.381442
 20
511.48
 30
0.0
 11
1735.564333
 21
505.11655
 31
0.0
  0
CIRCLE
  5
30F
100
AcDbEntity
  8
2
  6
Continuous
 62
   174
100
AcDbCircle
 10
1800.0
 20
773.766113
 30
0.0
 40
72.5
  0
CIRCLE
  5
310
100
AcDbEntity
  8
2
  6
Continuous
 62
   174
100
AcDbCircle
 10
1800.0
 20
773.766113
 30
0.0
 40
56.5
  0
CIRCLE
  5
311
100
AcDbEntity
  8
2
  6
Continuous
 62
   174
100
AcDbCircle
 10
1858.33631
 20
715.429804
 30
0.0
 40
9.5
  0
CIRCLE
  5
312
100
AcDbEntity
  8
2
  6
Continuous
 62
   174
100
AcDbCircle
 10
1800.0
 20
691.266114
 30
0.0
 40
9.5
  0
CIRCLE
  5
313
100
AcDbEntity
  8
2
  6
Continuous
 62
   174
100
AcDbCircle
 10
1741.663691
 20
715.429804
 30
0.0
 40
9.5
  0
CIRCLE
  5
314
100
AcDbEntity
  8
2
  6
Continuous
 62
   174
100
AcDbCircle
 10
1717.5
 20
773.766114
 30
0.0
 40
9.5
  0
CIRCLE
  5
315
100
AcDbEntity
  8
2
  6
Continuous
 62
   174
100
AcDbCircle
 10
1741.663691
 20
832.102423
 30
0.0
 40
9.5
  0
CIRCLE
  5
316
100
AcDbEntity
  8
2
  6
Continuous
 62
   174
100
AcDbCircle
 10
1800.0
 20
856.266114
 30
0.0
 40
9.5
  0
CIRCLE
  5
317
100
AcDbEntity
  8
2
  6
Continuous
 62
   174
100
AcDbCircle
 10
1858.33631
 20
832.102423
 30
0.0
 40
9.5
  0
CIRCLE
  5
318
100
AcDbEntity
  8
2
  6
Continuous
 62
   174
100
AcDbCircle
 10
1882.5
 20
773.766113
 30
0.0
 40
9.5
  0
CIRCLE
  5
319
100
AcDbEntity
  8
2
  6
Continuous
 62
   174
100
AcDbCircle
 10
1800.0
 20
773.766113
 30
0.0
 40
100.0
  0
LINE
  5
31A
100
AcDbEntity
  8
2
  6
CENTER
 62
   174
100
AcDbLine
 10
1733.178409
 20
706.944522
 30
0.0
 11
1750.148972
 21
723.915085
 31
0.0
  0
LINE
  5
31B
100
AcDbEntity
  8
2
  6
CENTER
 62
   174
100
AcDbLine
 10
1866.821591
 20
706.944523
 30
0.0
 11
1849.851028
 21
723.915085
 31
0.0
  0
LINE
  5
31C
100
AcDbEntity
  8
2
  6
CENTER
 62
   174
100
AcDbLine
 10
1866.821591
 20
840.587704
 30
0.0
 11
1849.851028
 21
823.617141
 31
0.0
  0
LINE
  5
31D
100
AcDbEntity
  8
2
  6
CENTER
 62
   174
100
AcDbLine
 10
1733.178409
 20
840.587704
 30
0.0
 11
1750.148972
 21
823.617142
 31
0.0
  0
LINE
  5
31E
100
AcDbEntity
  8
2
  6
CENTER
 62
   174
100
AcDbLine
 10
1690.0
 20
773.766113
 30
0.0
 11
1910.0
 21
773.766113
 31
0.0
  0
LINE
  5
31F
100
AcDbEntity
  8
2
  6
CENTER
 62
   174
100
AcDbLine
 10
1800.0
 20
883.766113
 30
0.0
 11
1800.0
 21
663.766113
 31
0.0
  0
CIRCLE
  5
320
100
AcDbEntity
  8
2
  6
CENTER
 62
   174
100
AcDbCircle
 10
1800.0
 20
773.766113
 30
0.0
 40
82.5
  0
CIRCLE
  5
321
100
AcDbEntity
  8
2
  6
Continuous
 62
   174
100
AcDbCircle
 10
1800.0
 20
773.766113
 30
0.0
 40
55.2
  0
LINE
  5
322
100
AcDbEntity
  8
2
  6
Continuous
 62
   174
100
AcDbLine
 10
2100.0
 20
565.7
 30
0.0
 11
2000.0
 21
565.7
 31
0.0
  0
LINE
  5
323
100
AcDbEntity
  8
2
  6
Continuous
 62
   174
100
AcDbLine
 10
2000.0
 20
565.7
 30
0.0
 11
2000.0
 21
549.7
 31
0.0
  0
LINE
  5
324
100
AcDbEntity
  8
2
  6
Continuous
 62
   174
100
AcDbLine
 10
2000.0
 20
549.7
 30
0.0
 11
2100.0
 21
549.7
 31
0.0
  0
LINE
  5
325
100
AcDbEntity
  8
2
  6
CENTER
 62
   174
100
AcDbLine
 10
2017.5
 20
539.7
 30
0.0
 11
2017.5
 21
575.7
 31
0.0
  0
LINE
  5
326
100
AcDbEntity
  8
2
  6
HIDDEN
 62
   174
100
AcDbLine
 10
2027.0
 20
549.7
 30
0.0
 11
2027.0
 21
565.7
 31
0.0
  0
LINE
  5
327
100
AcDbEntity
  8
2
  6
HIDDEN
 62
   174
100
AcDbLine
 10
2008.0
 20
549.7
 30
0.0
 11
2008.0
 21
565.7
 31
0.0
  0
LINE
  5
328
100
AcDbEntity
  8
2
  6
CENTER
 62
   174
100
AcDbLine
 10
2100.0
 20
580.0
 30
0.0
 11
2100.0
 21
282.89
 31
0.0
  0
LINE
  5
329
100
AcDbEntity
  8
2
  6
Continuous
 62
   174
100
AcDbLine
 10
2027.5
 20
565.7
 30
0.0
 11
2027.5
 21
570.0
 31
0.0
  0
LINE
  5
32A
100
AcDbEntity
  8
2
  6
Continuous
 62
   174
100
AcDbLine
 10
2027.5
 20
567.0
 30
0.0
 11
2100.0
 21
567.0
 31
0.0
  0
LINE
  5
32B
100
AcDbEntity
  8
2
  6
CENTER
 62
   174
100
AcDbLine
 10
2029.0
 20
549.7
 30
0.0
 11
2029.0
 21
322.6
 31
0.0
  0
LINE
  5
32C
100
AcDbEntity
  8
2
  6
Continuous
 62
   174
100
AcDbLine
 10
2043.114549
 20
548.776095
 30
0.0
 11
2035.678452
 21
541.415296
 31
0.0
  0
ARC
  5
32D
100
AcDbEntity
  8
2
  6
Continuous
 62
   174
100
AcDbCircle
 10
2042.2
 20
549.7
 30
0.0
 40
1.3
100
AcDbArc
 50
-45.292514
 51
0.0
  0
ARC
  5
32E
100
AcDbEntity
  8
2
  6
Continuous
 62
   174
100
AcDbCircle
 10
2038.0
 20
539.07
 30
0.0
 40
3.3
100
AcDbArc
 50
134.807852
 51
-137.567524
  0
ARC
  5
32F
100
AcDbEntity
  8
2
  6
Continuous
 62
   174
100
AcDbCircle
 10
2038.0
 20
517.89
 30
0.0
 40
3.3
100
AcDbArc
 50
137.567661
 51
-137.568194
  0
LINE
  5
330
100
AcDbEntity
  8
2
  6
CENTER
 62
   174
100
AcDbLine
 10
2034.7
 20
517.89
 30
0.0
 11
2034.7
 21
354.41
 31
0.0
  0
LINE
  5
331
100
AcDbEntity
  8
2
  6
Continuous
 62
   174
100
AcDbLine
 10
2038.0
 20
539.07
 30
0.0
 11
2100.0
 21
539.07
 31
0.0
  0
LINE
  5
332
100
AcDbEntity
  8
2
  6
Continuous
 62
   174
100
AcDbLine
 10
2040.5
 20
530.48
 30
0.0
 11
2100.0
 21
530.48
 31
0.0
  0
LINE
  5
333
100
AcDbEntity
  8
2
  6
Continuous
 62
   174
100
AcDbLine
 10
2040.5
 20
526.48
 30
0.0
 11
2100.0
 21
526.48
 31
0.0
  0
LINE
  5
334
100
AcDbEntity
  8
2
  6
Continuous
 62
   174
100
AcDbLine
 10
2038.0
 20
517.89
 30
0.0
 11
2100.0
 21
517.89
 31
0.0
  0
LINE
  5
335
100
AcDbEntity
  8
2
  6
Continuous
 62
   174
100
AcDbLine
 10
2040.5
 20
509.3
 30
0.0
 11
2100.0
 21
509.3
 31
0.0
  0
LINE
  5
336
100
AcDbEntity
  8
2
  6
Continuous
 62
   174
100
AcDbLine
 10
2040.5
 20
505.3
 30
0.0
 11
2100.0
 21
505.3
 31
0.0
  0
LINE
  5
337
100
AcDbEntity
  8
2
  6
CENTER
 62
   174
100
AcDbLine
 10
2035.5
 20
507.3
 30
0.0
 11
2100.0
 21
507.3
 31
0.0
  0
ARC
  5
338
100
AcDbEntity
  8
2
  6
Continuous
 62
   174
100
AcDbCircle
 10
2040.5
 20
507.3
 30
0.0
 40
2.0
100
AcDbArc
 50
90.0
 51
-90.0
  0
LINE
  5
339
100
AcDbEntity
  8
2
  6
Continuous
 62
   174
100
AcDbLine
 10
2038.369338
 20
502.005
 30
0.0
 11
2041.381442
 21
505.3
 31
0.0
  0
LINE
  5
33A
100
AcDbEntity
  8
2
  6
Continuous
 62
   174
100
AcDbLine
 10
2041.381442
 20
509.3
 30
0.0
 11
2035.564333
 21
515.66345
 31
0.0
  0
LINE
  5
33B
100
AcDbEntity
  8
2
  6
CENTER
 62
   174
100
AcDbLine
 10
2035.5
 20
528.48
 30
0.0
 11
2100.0
 21
528.48
 31
0.0
  0
ARC
  5
33C
100
AcDbEntity
  8
2
  6
Continuous
 62
   174
100
AcDbCircle
 10
2040.5
 20
528.48
 30
0.0
 40
2.0
100
AcDbArc
 50
90.0
 51
-90.0
  0
LINE
  5
33D
100
AcDbEntity
  8
2
  6
Continuous
 62
   174
100
AcDbLine
 10
2041.381442
 20
530.48
 30
0.0
 11
2035.564333
 21
536.84345
 31
0.0
  0
LINE
  5
33E
100
AcDbEntity
  8
2
  6
Continuous
 62
   174
100
AcDbLine
 10
2041.381442
 20
526.48
 30
0.0
 11
2035.564333
 21
520.11655
 31
0.0
  0
CIRCLE
  5
33F
100
AcDbEntity
  8
2
  6
Continuous
 62
   174
100
AcDbCircle
 10
2100.0
 20
788.766113
 30
0.0
 40
72.5
  0
CIRCLE
  5
340
100
AcDbEntity
  8
2
  6
Continuous
 62
   174
100
AcDbCircle
 10
2100.0
 20
788.766113
 30
0.0
 40
56.5
  0
CIRCLE
  5
341
100
AcDbEntity
  8
2
  6
Continuous
 62
   174
100
AcDbCircle
 10
2158.33631
 20
730.429804
 30
0.0
 40
9.5
  0
CIRCLE
  5
342
100
AcDbEntity
  8
2
  6
Continuous
 62
   174
100
AcDbCircle
 10
2100.0
 20
706.266114
 30
0.0
 40
9.5
  0
CIRCLE
  5
343
100
AcDbEntity
  8
2
  6
Continuous
 62
   174
100
AcDbCircle
 10
2041.663691
 20
730.429804
 30
0.0
 40
9.5
  0
CIRCLE
  5
344
100
AcDbEntity
  8
2
  6
Continuous
 62
   174
100
AcDbCircle
 10
2017.5
 20
788.766114
 30
0.0
 40
9.5
  0
CIRCLE
  5
345
100
AcDbEntity
  8
2
  6
Continuous
 62
   174
100
AcDbCircle
 10
2041.663691
 20
847.102423
 30
0.0
 40
9.5
  0
CIRCLE
  5
346
100
AcDbEntity
  8
2
  6
Continuous
 62
   174
100
AcDbCircle
 10
2100.0
 20
871.266114
 30
0.0
 40
9.5
  0
CIRCLE
  5
347
100
AcDbEntity
  8
2
  6
Continuous
 62
   174
100
AcDbCircle
 10
2158.33631
 20
847.102423
 30
0.0
 40
9.5
  0
CIRCLE
  5
348
100
AcDbEntity
  8
2
  6
Continuous
 62
   174
100
AcDbCircle
 10
2182.5
 20
788.766113
 30
0.0
 40
9.5
  0
CIRCLE
  5
349
100
AcDbEntity
  8
2
  6
Continuous
 62
   174
100
AcDbCircle
 10
2100.0
 20
788.766113
 30
0.0
 40
100.0
  0
LINE
  5
34A
100
AcDbEntity
  8
2
  6
CENTER
 62
   174
100
AcDbLine
 10
2033.178409
 20
721.944522
 30
0.0
 11
2050.148972
 21
738.915085
 31
0.0
  0
LINE
  5
34B
100
AcDbEntity
  8
2
  6
CENTER
 62
   174
100
AcDbLine
 10
2166.821591
 20
721.944523
 30
0.0
 11
2149.851028
 21
738.915085
 31
0.0
  0
LINE
  5
34C
100
AcDbEntity
  8
2
  6
CENTER
 62
   174
100
AcDbLine
 10
2166.821591
 20
855.587704
 30
0.0
 11
2149.851028
 21
838.617141
 31
0.0
  0
LINE
  5
34D
100
AcDbEntity
  8
2
  6
CENTER
 62
   174
100
AcDbLine
 10
2033.178409
 20
855.587704
 30
0.0
 11
2050.148972
 21
838.617142
 31
0.0
  0
LINE
  5
34E
100
AcDbEntity
  8
2
  6
CENTER
 62
   174
100
AcDbLine
 10
1990.0
 20
788.766113
 30
0.0
 11
2210.0
 21
788.766113
 31
0.0
  0
LINE
  5
34F
100
AcDbEntity
  8
2
  6
CENTER
 62
   174
100
AcDbLine
 10
2100.0
 20
898.766113
 30
0.0
 11
2100.0
 21
678.766113
 31
0.0
  0
CIRCLE
  5
350
100
AcDbEntity
  8
2
  6
CENTER
 62
   174
100
AcDbCircle
 10
2100.0
 20
788.766113
 30
0.0
 40
82.5
  0
CIRCLE
  5
351
100
AcDbEntity
  8
2
  6
Continuous
 62
   174
100
AcDbCircle
 10
2100.0
 20
788.766113
 30
0.0
 40
55.2
  0
LINE
  5
352
100
AcDbEntity
  8
2
  6
Continuous
 62
   174
100
AcDbLine
 10
2400.0
 20
585.7
 30
0.0
 11
2300.0
 21
585.7
 31
0.0
  0
LINE
  5
353
100
AcDbEntity
  8
2
  6
Continuous
 62
   174
100
AcDbLine
 10
2300.0
 20
585.7
 30
0.0
 11
2300.0
 21
569.7
 31
0.0
  0
LINE
  5
354
100
AcDbEntity
  8
2
  6
Continuous
 62
   174
100
AcDbLine
 10
2300.0
 20
569.7
 30
0.0
 11
2400.0
 21
569.7
 31
0.0
  0
LINE
  5
355
100
AcDbEntity
  8
2
  6
CENTER
 62
   174
100
AcDbLine
 10
2317.5
 20
559.7
 30
0.0
 11
2317.5
 21
595.7
 31
0.0
  0
LINE
  5
356
100
AcDbEntity
  8
2
  6
HIDDEN
 62
   174
100
AcDbLine
 10
2327.0
 20
569.7
 30
0.0
 11
2327.0
 21
585.7
 31
0.0
  0
LINE
  5
357
100
AcDbEntity
  8
2
  6
HIDDEN
 62
   174
100
AcDbLine
 10
2308.0
 20
569.7
 30
0.0
 11
2308.0
 21
585.7
 31
0.0
  0
LINE
  5
358
100
AcDbEntity
  8
2
  6
CENTER
 62
   174
100
AcDbLine
 10
2400.0
 20
600.0
 30
0.0
 11
2400.0
 21
282.89
 31
0.0
  0
LINE
  5
359
100
AcDbEntity
  8
2
  6
Continuous
 62
   174
100
AcDbLine
 10
2327.5
 20
585.7
 30
0.0
 11
2327.5
 21
590.0
 31
0.0
  0
LINE
  5
35A
100
AcDbEntity
  8
2
  6
Continuous
 62
   174
100
AcDbLine
 10
2327.5
 20
587.0
 30
0.0
 11
2400.0
 21
587.0
 31
0.0
  0
LINE
  5
35B
100
AcDbEntity
  8
2
  6
CENTER
 62
   174
100
AcDbLine
 10
2329.0
 20
569.7
 30
0.0
 11
2329.0
 21
322.6
 31
0.0
  0
LINE
  5
35C
100
AcDbEntity
  8
2
  6
Continuous
 62
   174
100
AcDbLine
 10
2343.114549
 20
568.776095
 30
0.0
 11
2335.678452
 21
561.415296
 31
0.0
  0
ARC
  5
35D
100
AcDbEntity
  8
2
  6
Continuous
 62
   174
100
AcDbCircle
 10
2342.2
 20
569.7
 30
0.0
 40
1.3
100
AcDbArc
 50
-45.292514
 51
0.0
  0
ARC
  5
35E
100
AcDbEntity
  8
2
  6
Continuous
 62
   174
100
AcDbCircle
 10
2338.0
 20
559.07
 30
0.0
 40
3.3
100
AcDbArc
 50
134.807852
 51
-137.567524
  0
ARC
  5
35F
100
AcDbEntity
  8
2
  6
Continuous
 62
   174
100
AcDbCircle
 10
2338.0
 20
537.89
 30
0.0
 40
3.3
100
AcDbArc
 50
137.567661
 51
-137.568194
  0
LINE
  5
360
100
AcDbEntity
  8
2
  6
CENTER
 62
   174
100
AcDbLine
 10
2334.7
 20
537.89
 30
0.0
 11
2334.7
 21
354.41
 31
0.0
  0
LINE
  5
361
100
AcDbEntity
  8
2
  6
Continuous
 62
   174
100
AcDbLine
 10
2338.0
 20
559.07
 30
0.0
 11
2400.0
 21
559.07
 31
0.0
  0
LINE
  5
362
100
AcDbEntity
  8
2
  6
Continuous
 62
   174
100
AcDbLine
 10
2340.5
 20
550.48
 30
0.0
 11
2400.0
 21
550.48
 31
0.0
  0
LINE
  5
363
100
AcDbEntity
  8
2
  6
Continuous
 62
   174
100
AcDbLine
 10
2340.5
 20
546.48
 30
0.0
 11
2400.0
 21
546.48
 31
0.0
  0
LINE
  5
364
100
AcDbEntity
  8
2
  6
Continuous
 62
   174
100
AcDbLine
 10
2338.0
 20
537.89
 30
0.0
 11
2400.0
 21
537.89
 31
0.0
  0
LINE
  5
365
100
AcDbEntity
  8
2
  6
Continuous
 62
   174
100
AcDbLine
 10
2340.5
 20
529.3
 30
0.0
 11
2400.0
 21
529.3
 31
0.0
  0
LINE
  5
366
100
AcDbEntity
  8
2
  6
Continuous
 62
   174
100
AcDbLine
 10
2340.5
 20
525.3
 30
0.0
 11
2400.0
 21
525.3
 31
0.0
  0
LINE
  5
367
100
AcDbEntity
  8
2
  6
CENTER
 62
   174
100
AcDbLine
 10
2335.5
 20
527.3
 30
0.0
 11
2400.0
 21
527.3
 31
0.0
  0
ARC
  5
368
100
AcDbEntity
  8
2
  6
Continuous
 62
   174
100
AcDbCircle
 10
2340.5
 20
527.3
 30
0.0
 40
2.0
100
AcDbArc
 50
90.0
 51
-90.0
  0
LINE
  5
369
100
AcDbEntity
  8
2
  6
Continuous
 62
   174
100
AcDbLine
 10
2338.369338
 20
522.005
 30
0.0
 11
2341.381442
 21
525.3
 31
0.0
  0
LINE
  5
36A
100
AcDbEntity
  8
2
  6
Continuous
 62
   174
100
AcDbLine
 10
2341.381442
 20
529.3
 30
0.0
 11
2335.564333
 21
535.66345
 31
0.0
  0
LINE
  5
36B
100
AcDbEntity
  8
2
  6
CENTER
 62
   174
100
AcDbLine
 10
2335.5
 20
548.48
 30
0.0
 11
2400.0
 21
548.48
 31
0.0
  0
ARC
  5
36C
100
AcDbEntity
  8
2
  6
Continuous
 62
   174
100
AcDbCircle
 10
2340.5
 20
548.48
 30
0.0
 40
2.0
100
AcDbArc
 50
90.0
 51
-90.0
  0
LINE
  5
36D
100
AcDbEntity
  8
2
  6
Continuous
 62
   174
100
AcDbLine
 10
2341.381442
 20
550.48
 30
0.0
 11
2335.564333
 21
556.84345
 31
0.0
  0
LINE
  5
36E
100
AcDbEntity
  8
2
  6
Continuous
 62
   174
100
AcDbLine
 10
2341.381442
 20
546.48
 30
0.0
 11
2335.564333
 21
540.11655
 31
0.0
  0
CIRCLE
  5
36F
100
AcDbEntity
  8
2
  6
Continuous
 62
   174
100
AcDbCircle
 10
2400.0
 20
808.766113
 30
0.0
 40
72.5
  0
CIRCLE
  5
370
100
AcDbEntity
  8
2
  6
Continuous
 62
   174
100
AcDbCircle
 10
2400.0
 20
808.766113
 30
0.0
 40
56.5
  0
CIRCLE
  5
371
100
AcDbEntity
  8
2
  6
Continuous
 62
   174
100
AcDbCircle
 10
2458.33631
 20
750.429804
 30
0.0
 40
9.5
  0
CIRCLE
  5
372
100
AcDbEntity
  8
2
  6
Continuous
 62
   174
100
AcDbCircle
 10
2400.0
 20
726.266114
 30
0.0
 40
9.5
  0
CIRCLE
  5
373
100
AcDbEntity
  8
2
  6
Continuous
 62
   174
100
AcDbCircle
 10
2341.663691
 20
750.429804
 30
0.0
 40
9.5
  0
CIRCLE
  5
374
100
AcDbEntity
  8
2
  6
Continuous
 62
   174
100
AcDbCircle
 10
2317.5
 20
808.766114
 30
0.0
 40
9.5
  0
CIRCLE
  5
375
100
AcDbEntity
  8
2
  6
Continuous
 62
   174
100
AcDbCircle
 10
2341.663691
 20
867.102423
 30
0.0
 40
9.5
  0
CIRCLE
  5
376
100
AcDbEntity
  8
2
  6
Continuous
 62
   174
100
AcDbCircle
 10
2400.0
 20
891.266114
 30
0.0
 40
9.5
  0
CIRCLE
  5
377
100
AcDbEntity
  8
2
  6
Continuous
 62
   174
100
AcDbCircle
 10
2458.33631
 20
867.102423
 30
0.0
 40
9.5
  0
CIRCLE
  5
378
100
AcDbEntity
  8
2
  6
Continuous
 62
   174
100
AcDbCircle
 10
2482.5
 20
808.766113
 30
0.0
 40
9.5
  0
CIRCLE
  5
379
100
AcDbEntity
  8
2
  6
Continuous
 62
   174
100
AcDbCircle
 10
2400.0
 20
808.766113
 30
0.0
 40
100.0
  0
LINE
  5
37A
100
AcDbEntity
  8
2
  6
CENTER
 62
   174
100
AcDbLine
 10
2333.178409
 20
741.944522
 30
0.0
 11
2350.148972
 21
758.915085
 31
0.0
  0
LINE
  5
37B
100
AcDbEntity
  8
2
  6
CENTER
 62
   174
100
AcDbLine
 10
2466.821591
 20
741.944523
 30
0.0
 11
2449.851028
 21
758.915085
 31
0.0
  0
LINE
  5
37C
100
AcDbEntity
  8
2
  6
CENTER
 62
   174
100
AcDbLine
 10
2466.821591
 20
875.587704
 30
0.0
 11
2449.851028
 21
858.617141
 31
0.0
  0
LINE
  5
37D
100
AcDbEntity
  8
2
  6
CENTER
 62
   174
100
AcDbLine
 10
2333.178409
 20
875.587704
 30
0.0
 11
2350.148972
 21
858.617142
 31
0.0
  0
LINE
  5
37E
100
AcDbEntity
  8
2
  6
CENTER
 62
   174
100
AcDbLine
 10
2290.0
 20
808.766113
 30
0.0
 11
2510.0
 21
808.766113
 31
0.0
  0
LINE
  5
37F
100
AcDbEntity
  8
2
  6
CENTER
 62
   174
100
AcDbLine
 10
2400.0
 20
918.766113
 30
0.0
 11
2400.0
 21
698.766113
 31
0.0
  0
CIRCLE
  5
380
100
AcDbEntity
  8
2
  6
CENTER
 62
   174
100
AcDbCircle
 10
2400.0
 20
808.766113
 30
0.0
 40
82.5
  0
CIRCLE
  5
381
100
AcDbEntity
  8
2
  6
Continuous
 62
   174
100
AcDbCircle
 10
2400.0
 20
808.766113
 30
0.0
 40
55.2
  0
LINE
  5
382
100
AcDbEntity
  8
2
  6
Continuous
 62
   174
100
AcDbLine
 10
2700.0
 20
605.7
 30
0.0
 11
2600.0
 21
605.7
 31
0.0
  0
LINE
  5
383
100
AcDbEntity
  8
2
  6
Continuous
 62
   174
100
AcDbLine
 10
2600.0
 20
605.7
 30
0.0
 11
2600.0
 21
589.7
 31
0.0
  0
LINE
  5
384
100
AcDbEntity
  8
2
  6
Continuous
 62
   174
100
AcDbLine
 10
2600.0
 20
589.7
 30
0.0
 11
2700.0
 21
589.7
 31
0.0
  0
LINE
  5
385
100
AcDbEntity
  8
2
  6
CENTER
 62
   174
100
AcDbLine
 10
2617.5
 20
579.7
 30
0.0
 11
2617.5
 21
615.7
 31
0.0
  0
LINE
  5
386
100
AcDbEntity
  8
2
  6
HIDDEN
 62
   174
100
AcDbLine
 10
2627.0
 20
589.7
 30
0.0
 11
2627.0
 21
605.7
 31
0.0
  0
LINE
  5
387
100
AcDbEntity
  8
2
  6
HIDDEN
 62
   174
100
AcDbLine
 10
2608.0
 20
589.7
 30
0.0
 11
2608.0
 21
605.7
 31
0.0
  0
LINE
  5
388
100
AcDbEntity
  8
2
  6
CENTER
 62
   174
100
AcDbLine
 10
2700.0
 20
620.0
 30
0.0
 11
2700.0
 21
282.89
 31
0.0
  0
LINE
  5
389
100
AcDbEntity
  8
2
  6
Continuous
 62
   174
100
AcDbLine
 10
2627.5
 20
605.7
 30
0.0
 11
2627.5
 21
610.0
 31
0.0
  0
LINE
  5
38A
100
AcDbEntity
  8
2
  6
Continuous
 62
   174
100
AcDbLine
 10
2627.5
 20
607.0
 30
0.0
 11
2700.0
 21
607.0
 31
0.0
  0
LINE
  5
38B
100
AcDbEntity
  8
2
  6
CENTER
 62
   174
100
AcDbLine
 10
2629.0
 20
589.7
 30
0.0
 11
2629.0
 21
322.6
 31
0.0
  0
LINE
  5
38C
100
AcDbEntity
  8
2
  6
Continuous
 62
   174
100
AcDbLine
 10
2643.114549
 20
588.776095
 30
0.0
 11
2635.678452
 21
581.415296
 31
0.0
  0
ARC
  5
38D
100
AcDbEntity
  8
2
  6
Continuous
 62
   174
100
AcDbCircle
 10
2642.2
 20
589.7
 30
0.0
 40
1.3
100
AcDbArc
 50
-45.292514
 51
0.0
  0
ARC
  5
38E
100
AcDbEntity
  8
2
  6
Continuous
 62
   174
100
AcDbCircle
 10
2638.0
 20
579.07
 30
0.0
 40
3.3
100
AcDbArc
 50
134.807852
 51
-137.567524
  0
ARC
  5
38F
100
AcDbEntity
  8
2
  6
Continuous
 62
   174
100
AcDbCircle
 10
2638.0
 20
557.89
 30
0.0
 40
3.3
100
AcDbArc
 50
137.567661
 51
-137.568194
  0
LINE
  5
390
100
AcDbEntity
  8
2
  6
CENTER
 62
   174
100
AcDbLine
 10
2634.7
 20
557.89
 30
0.0
 11
2634.7
 21
354.41
 31
0.0
  0
LINE
  5
391
100
AcDbEntity
  8
2
  6
Continuous
 62
   174
100
AcDbLine
 10
2638.0
 20
579.07
 30
0.0
 11
2700.0
 21
579.07
 31
0.0
  0
LINE
  5
392
100
AcDbEntity
  8
2
  6
Continuous
 62
   174
100
AcDbLine
 10
2640.5
 20
570.48
 30
0.0
 11
2700.0
 21
570.48
 31
0.0
  0
LINE
  5
393
100
AcDbEntity
  8
2
  6
Continuous
 62
   174
100
AcDbLine
 10
2640.5
 20
566.48
 30
0.0
 11
2700.0
 21
566.48
 31
0.0
  0
LINE
  5
394
100
AcDbEntity
  8
2
  6
Continuous
 62
   174
100
AcDbLine
 10
2638.0
 20
557.89
 30
0.0
 11
2700.0
 21
557.89
 31
0.0
  0
LINE
  5
395
100
AcDbEntity
  8
2
  6
Continuous
 62
   174
100
AcDbLine
 10
2640.5
 20
549.3
 30
0.0
 11
2700.0
 21
549.3
 31
0.0
  0
LINE
  5
396
100
AcDbEntity
  8
2
  6
Continuous
 62
   174
100
AcDbLine
 10
2640.5
 20
545.3
 30
0.0
 11
2700.0
 21
545.3
 31
0.0
  0
LINE
  5
397
100
AcDbEntity
  8
2
  6
CENTER
 62
   174
100
AcDbLine
 10
2635.5
 20
547.3
 30
0.0
 11
2700.0
 21
547.3
 31
0.0
  0
ARC
  5
398
100
AcDbEntity
  8
2
  6
Continuous
 62
   174
100
AcDbCircle
 10
2640.5
 20
547.3
 30
0.0
 40
2.0
100
AcDbArc
 50
90.0
 51
-90.0
  0
LINE
  5
399
100
AcDbEntity
  8
2
  6
Continuous
 62
   174
100
AcDbLine
 10
2638.369338
 20
542.005
 30
0.0
 11
2641.381442
 21
545.3
 31
0.0
  0
LINE
  5
39A
100
AcDbEntity
  8
2
  6
Continuous
 62
   174
100
AcDbLine
 10
2641.381442
 20
549.3
 30
0.0
 11
2635.564333
 21
555.66345
 31
0.0
  0
LINE
  5
39B
100
AcDbEntity
  8
2
  6
CENTER
 62
   174
100
AcDbLine
 10
2635.5
 20
568.48
 30
0.0
 11
2700.0
 21
568.48
 31
0.0
  0
ARC
  5
39C
100
AcDbEntity
  8
2
  6
Continuous
 62
   174
100
AcDbCircle
 10
2640.5
 20
568.48
 30
0.0
 40
2.0
100
AcDbArc
 50
90.0
 51
-90.0
  0
LINE
  5
39D
100
AcDbEntity
  8
2
  6
Continuous
 62
   174
100
AcDbLine
 10
2641.381442
 20
570.48
 30
0.0
 11
2635.564333
 21
576.84345
 31
0.0
  0
LINE
  5
39E
100
AcDbEntity
  8
2
  6
Continuous
 62
   174
100
AcDbLine
 10
2641.381442
 20
566.48
 30
0.0
 11
2635.564333
 21
560.11655
 31
0.0
  0
CIRCLE
  5
39F
100
AcDbEntity
  8
2
  6
Continuous
 62
   174
100
AcDbCircle
 10
2700.0
 20
828.766113
 30
0.0
 40
72.5
  0
CIRCLE
  5
3A0
100
AcDbEntity
  8
2
  6
Continuous
 62
   174
100
AcDbCircle
 10
2700.0
 20
828.766113
 30
0.0
 40
56.5
  0
CIRCLE
  5
3A1
100
AcDbEntity
  8
2
  6
Continuous
 62
   174
100
AcDbCircle
 10
2758.33631
 20
770.429804
 30
0.0
 40
9.5
  0
CIRCLE
  5
3A2
100
AcDbEntity
  8
2
  6
Continuous
 62
   174
100
AcDbCircle
 10
2700.0
 20
746.266114
 30
0.0
 40
9.5
  0
CIRCLE
  5
3A3
100
AcDbEntity
  8
2
  6
Continuous
 62
   174
100
AcDbCircle
 10
2641.663691
 20
770.429804
 30
0.0
 40
9.5
  0
CIRCLE
  5
3A4
100
AcDbEntity
  8
2
  6
Continuous
 62
   174
100
AcDbCircle
 10
2617.5
 20
828.766114
 30
0.0
 40
9.5
  0
CIRCLE
  5
3A5
100
AcDbEntity
  8
2
  6
Continuous
 62
   174
100
AcDbCircle
 10
2641.663691
 20
887.102423
 30
0.0
 40
9.5
  0
CIRCLE
  5
3A6
100
AcDbEntity
  8
2
  6
Continuous
 62
   174
100
AcDbCircle
 10
2700.0
 20
911.266114
 30
0.0
 40
9.5
  0
CIRCLE
  5
3A7
100
AcDbEntity
  8
2
  6
Continuous
 62
   174
100
AcDbCircle
 10
2758.33631
 20
887.102423
 30
0.0
 40
9.5
  0
CIRCLE
  5
3A8
100
AcDbEntity
  8
2
  6
Continuous
 62
   174
100
AcDbCircle
 10
2782.5
 20
828.766113
 30
0.0
 40
9.5
  0
CIRCLE
  5
3A9
100
AcDbEntity
  8
2
  6
Continuous
 62
   174
100
AcDbCircle
 10
2700.0
 20
828.766113
 30
0.0
 40
100.0
  0
LINE
  5
3AA
100
AcDbEntity
  8
2
  6
CENTER
 62
   174
100
AcDbLine
 10
2633.178409
 20
761.944522
 30
0.0
 11
2650.148972
 21
778.915085
 31
0.0
  0
LINE
  5
3AB
100
AcDbEntity
  8
2
  6
CENTER
 62
   174
100
AcDbLine
 10
2766.821591
 20
761.944523
 30
0.0
 11
2749.851028
 21
778.915085
 31
0.0
  0
LINE
  5
3AC
100
AcDbEntity
  8
2
  6
CENTER
 62
   174
100
AcDbLine
 10
2766.821591
 20
895.587704
 30
0.0
 11
2749.851028
 21
878.617141
 31
0.0
  0
LINE
  5
3AD
100
AcDbEntity
  8
2
  6
CENTER
 62
   174
100
AcDbLine
 10
2633.178409
 20
895.587704
 30
0.0
 11
2650.148972
 21
878.617142
 31
0.0
  0
LINE
  5
3AE
100
AcDbEntity
  8
2
  6
CENTER
 62
   174
100
AcDbLine
 10
2590.0
 20
828.766113
 30
0.0
 11
2810.0
 21
828.766113
 31
0.0
  0
LINE
  5
3AF
100
AcDbEntity
  8
2
  6
CENTER
 62
   174
100
AcDbLine
 10
2700.0
 20
938.766113
 30
0.0
 11
2700.0
 21
718.766113
 31
0.0
  0
CIRCLE
  5
3B0
100
AcDbEntity
  8
2
  6
CENTER
 62
   174
100
AcDbCircle
 10
2700.0
 20
828.766113
 30
0.0
 40
82.5
  0
CIRCLE
  5
3B1
100
AcDbEntity
  8
2
  6
Continuous
 62
   174
100
AcDbCircle
 10
2700.0
 20
828.766113
 30
0.0
 40
55.2
  0
LINE
  5
3B2
100
AcDbEntity
  8
2
  6
Continuous
 62
   174
100
AcDbLine
 10
3000.0
 20
625.7
 30
0.0
 11
2900.0
 21
625.7
 31
0.0
  0
LINE
  5
3B3
100
AcDbEntity
  8
2
  6
Continuous
 62
   174
100
AcDbLine
 10
2900.0
 20
625.7
 30
0.0
 11
2900.0
 21
609.7
 31
0.0
  0
LINE
  5
3B4
100
AcDbEntity
  8
2
  6
Continuous
 62
   174
100
AcDbLine
 10
2900.0
 20
609.7
 30
0.0
 11
3000.0
 21
609.7
 31
0.0
  0
LINE
  5
3B5
100
AcDbEntity
  8
2
  6
CENTER
 62
   174
100
AcDbLine
 10
2917.5
 20
599.7
 30
0.0
 11
2917.5
 21
635.7
 31
0.0
  0
LINE
  5
3B6
100
AcDbEntity
  8
2
  6
HIDDEN
 62
   174
100
AcDbLine
 10
2927.0
 20
609.7
 30
0.0
 11
2927.0
 21
625.7
 31
0.0
  0
LINE
  5
3B7
100
AcDbEntity
  8
2
  6
HIDDEN
 62
   174
100
AcDbLine
 10
2908.0
 20
609.7
 30
0.0
 11
2908.0
 21
625.7
 31
0.0
  0
LINE
  5
3B8
100
AcDbEntity
  8
2
  6
CENTER
 62
   174
100
AcDbLine
 10
3000.0
 20
640.0
 30
0.0
 11
3000.0
 21
282.89
 31
0.0
  0
LINE
  5
3B9
100
AcDbEntity
  8
2
  6
Continuous
 62
   174
100
AcDbLine
 10
2927.5
 20
625.7
 30
0.0
 11
2927.5
 21
630.0
 31
0.0
  0
LINE
  5
3BA
100
AcDbEntity
  8
2
  6
Continuous
 62
   174
100
AcDbLine
 10
2927.5
 20
627.0
 30
0.0
 11
3000.0
 21
627.0
 31
0.0
  0
LINE
  5
3BB
100
AcDbEntity
  8
2
  6
CENTER
 62
   174
100
AcDbLine
 10
2929.0
 20
609.7
 30
0.0
 11
2929.0
 21
322.6
 31
0.0
  0
LINE
  5
3BC
100
AcDbEntity
  8
2
  6
Continuous
 62
   174
100
AcDbLine
 10
2943.114549
 20
608.776095
 30
0.0
 11
2935.678452
 21
601.415296
 31
0.0
  0
ARC
  5
3BD
100
AcDbEntity
  8
2
  6
Continuous
 62
   174
100
AcDbCircle
 10
2942.2
 20
609.7
 30
0.0
 40
1.3
100
AcDbArc
 50
-45.292514
 51
0.0
  0
ARC
  5
3BE
100
AcDbEntity
  8
2
  6
Continuous
 62
   174
100
AcDbCircle
 10
2938.0
 20
599.07
 30
0.0
 40
3.3
100
AcDbArc
 50
134.807852
 51
-137.567524
  0
ARC
  5
3BF
100
AcDbEntity
  8
2
  6
Continuous
 62
   174
100
AcDbCircle
 10
2938.0
 20
577.89
 30
0.0
 40
3.3
100
AcDbArc
 50
137.567661
 51
-137.568194
  0
LINE
  5
3C0
100
AcDbEntity
  8
2
  6
CENTER
 62
   174
100
AcDbLine
 10
2934.7
 20
577.89
 30
0.0
 11
2934.7
 21
354.41
 31
0.0
  0
LINE
  5
3C1
100
AcDbEntity
  8
2
  6
Continuous
 62
   174
100
AcDbLine
 10
2938.0
 20
599.07
 30
0.0
 11
3000.0
 21
599.07
 31
0.0
  0
LINE
  5
3C2
100
AcDbEntity
  8
2
  6
Continuous
 62
   174
100
AcDbLine
 10
2940.5
 20
590.48
 30
0.0
 11
3000.0
 21
590.48
 31
0.0
  0
LINE
  5
3C3
100
AcDbEntity
  8
2
  6
Continuous
 62
   174
100
AcDbLine
 10
2940.5
 20
586.48
 30
0.0
 11
3000.0
 21
586.48
 31
0.0
  0
LINE
  5
3C4
100
AcDbEntity
  8
2
  6
Continuous
 62
   174
100
AcDbLine
 10
2938.0
 20
577.89
 30
0.0
 11
3000.0
 21
577.89
 31
0.0
  0
LINE
  5
3C5
100
AcDbEntity
  8
2
  6
Continuous
 62
   174
100
AcDbLine
 10
2940.5
 20
569.3
 30
0.0
 11
3000.0
 21
569.3
 31
0.0
  0
LINE
  5
3C6
100
AcDbEntity
  8
2
  6
Continuous
 62
   174
100
AcDbLine
 10
2940.5
 20
565.3
 30
0.0
 11
3000.0
 21
565.3
 31
0.0
  0
LINE
  5
3C7
100
AcDbEntity
  8
2
  6
CENTER
 62
   174
100
AcDbLine
 10
2935.5
 20
567.3
 30
0.0
 11
3000.0
 21
567.3
 31
0.0
  0
ARC
  5
3C8
100
AcDbEntity
  8
2
  6
Continuous
 62
   174
100
AcDbCircle
 10
2940.5
 20
567.3
 30
0.0
 40
2.0
100
AcDbArc
 50
90.0
 51
-90.0
  0
LINE
  5
3C9
100
AcDbEntity
  8
2
  6
Continuous
 62
   174
100
AcDbLine
 10
2938.369338
 20
562.005
 30
0.0
 11
2941.381442
 21
565.3
 31
0.0
  0
LINE
  5
3CA
100
AcDbEntity
  8
2
  6
Continuous
 62
   174
100
AcDbLine
 10
2941.381442
 20
569.3
 30
0.0
 11
2935.564333
 21
575.66345
 31
0.0
  0
LINE
  5
3CB
100
AcDbEntity
  8
2
  6
CENTER
 62
   174
100
AcDbLine
 10
2935.5
 20
588.48
 30
0.0
 11
3000.0
 21
588.48
 31
0.0
  0
ARC
  5
3CC
100
AcDbEntity
  8
2
  6
Continuous
 62
   174
100
AcDbCircle
 10
2940.5
 20
588.48
 30
0.0
 40
2.0
100
AcDbArc
 50
90.0
 51
-90.0
  0
LINE
  5
3CD
100
AcDbEntity
  8
2
  6
Continuous
 62
   174
100
AcDbLine
 10
2941.381442
 20
590.48
 30
0.0
 11
2935.564333
 21
596.84345
 31
0.0
  0
LINE
  5
3CE
100
AcDbEntity
  8
2
  6
Continuous
 62
   174
100
AcDbLine
 10
2941.381442
 20
586.48
 30
0.0
 11
2935.564333
 21
580.11655
 31
0.0
  0
CIRCLE
  5
3CF
100
AcDbEntity
  8
2
  6
Continuous
 62
   174
100
AcDbCircle
 10
3000.0
 20
848.766113
 30
0.0
 40
72.5
  0
CIRCLE
  5
3D0
100
AcDbEntity
  8
2
  6
Continuous
 62
   174
100
AcDbCircle
 10
3000.0
 20
848.766113
 30
0.0
 40
56.5
  0
CIRCLE
  5
3D1
100
AcDbEntity
  8
2
  6
Continuous
 62
   174
100
AcDbCircle
 10
3058.33631
 20
790.429804
 30
0.0
 40
9.5
  0
CIRCLE
  5
3D2
100
AcDbEntity
  8
2
  6
Continuous
 62
   174
100
AcDbCircle
 10
3000.0
 20
766.266114
 30
0.0
 40
9.5
  0
CIRCLE
  5
3D3
100
AcDbEntity
  8
2
  6
Continuous
 62
   174
100
AcDbCircle
 10
2941.663691
 20
790.429804
 30
0.0
 40
9.5
  0
CIRCLE
  5
3D4
100
AcDbEntity
  8
2
  6
Continuous
 62
   174
100
AcDbCircle
 10
2917.5
 20
848.766114
 30
0.0
 40
9.5
  0
CIRCLE
  5
3D5
100
AcDbEntity
  8
2
  6
Continuous
 62
   174
100
AcDbCircle
 10
2941.663691
 20
907.102423
 30
0.0
 40
9.5
  0
CIRCLE
  5
3D6
100
AcDbEntity
  8
2
  6
Continuous
 62
   174
100
AcDbCircle
 10
3000.0
 20
931.266114
 30
0.0
 40
9.5
  0
CIRCLE
  5
3D7
100
AcDbEntity
  8
2
  6
Continuous
 62
   174
100
AcDbCircle
 10
3058.33631
 20
907.102423
 30
0.0
 40
9.5
  0
CIRCLE
  5
3D8
100
AcDbEntity
  8
2
  6
Continuous
 62
   174
100
AcDbCircle
 10
3082.5
 20
848.766113
 30
0.0
 40
9.5
  0
CIRCLE
  5
3D9
100
AcDbEntity
  8
2
  6
Continuous
 62
   174
100
AcDbCircle
 10
3000.0
 20
848.766113
 30
0.0
 40
100.0
  0
LINE
  5
3DA
100
AcDbEntity
  8
2
  6
CENTER
 62
   174
100
AcDbLine
 10
2933.178409
 20
781.944522
 30
0.0
 11
2950.148972
 21
798.915085
 31
0.0
  0
LINE
  5
3DB
100
AcDbEntity
  8
2
  6
CENTER
 62
   174
100
AcDbLine
 10
3066.821591
 20
781.944523
 30
0.0
 11
3049.851028
 21
798.915085
 31
0.0
  0
LINE
  5
3DC
100
AcDbEntity
  8
2
  6
CENTER
 62
   174
100
AcDbLine
 10
3066.821591
 20
915.587704
 30
0.0
 11
3049.851028
 21
898.617141
 31
0.0
  0
LINE
  5
3DD
100
AcDbEntity
  8
2
  6
CENTER
 62
   174
100
AcDbLine
 10
2933.178409
 20
915.587704
 30
0.0
 11
2950.148972
 21
898.617142
 31
0.0
  0
LINE
  5
3DE
100
AcDbEntity
  8
2
  6
CENTER
 62
   174
100
AcDbLine
 10
2890.0
 20
848.766113
 30
0.0
 11
3110.0
 21
848.766113
 31
0.0
  0
LINE
  5
3DF
100
AcDbEntity
  8
2
  6
CENTER
 62
   174
100
AcDbLine
 10
3000.0
 20
958.766113
 30
0.0
 11
3000.0
 21
738.766113
 31
0.0
  0
CIRCLE
  5
3E0
100
AcDbEntity
  8
2
  6
CENTER
 62
   174
100
AcDbCircle
 10
3000.0
 20
848.766113
 30
0.0
 40
82.5
  0
CIRCLE
  5
3E1
100
AcDbEntity
  8
2
  6
Continuous
 62
   174
100
AcDbCircle
 10
3000.0
 20
848.766113
 30
0.0
 40
55.2
  0
TEXT
  5
3E2
100
AcDbEntity
  8
2
  6
Continuous
 62
   174
100
AcDbText
 10
233.905298
 20
206.908003
 30
0.0
 40
30.0
  1
100A　G1
 41
0.540124
 11
233.905298
 21
206.908003
 31
0.0
100
AcDbText
 73
     1
  0
TEXT
  5
3E3
100
AcDbEntity
  8
2
  6
Continuous
 62
   174
100
AcDbText
 10
215.316144
 20
170.443148
 30
0.0
 40
20.0
  1
 取付長（L) 170
 41
0.681818
 11
215.316144
 21
170.443148
 31
0.0
100
AcDbText
 73
     1
  0
TEXT
  5
3E4
100
AcDbEntity
  8
2
  6
Continuous
 62
   174
100
AcDbText
 10
533.905298
 20
206.908003
 30
0.0
 40
30.0
  1
100A　G2
 41
0.540124
 11
533.905298
 21
206.908003
 31
0.0
100
AcDbText
 73
     1
  0
TEXT
  5
3E5
100
AcDbEntity
  8
2
  6
Continuous
 62
   174
100
AcDbText
 10
515.316144
 20
170.443148
 30
0.0
 40
20.0
  1
 取付長（L) 190
 41
0.681818
 11
515.316144
 21
170.443148
 31
0.0
100
AcDbText
 73
     1
  0
TEXT
  5
3E6
100
AcDbEntity
  8
2
  6
Continuous
 62
   174
100
AcDbText
 10
833.905298
 20
206.908003
 30
0.0
 40
30.0
  1
100A　G3
 41
0.540124
 11
833.905298
 21
206.908003
 31
0.0
100
AcDbText
 73
     1
  0
TEXT
  5
3E7
100
AcDbEntity
  8
2
  6
Continuous
 62
   174
100
AcDbText
 10
815.316144
 20
170.443148
 30
0.0
 40
20.0
  1
 取付長（L) 210
 41
0.681818
 11
815.316144
 21
170.443148
 31
0.0
100
AcDbText
 73
     1
  0
TEXT
  5
3E8
100
AcDbEntity
  8
2
  6
Continuous
 62
   174
100
AcDbText
 10
1133.905298
 20
206.908003
 30
0.0
 40
30.0
  1
100A　G4
 41
0.540124
 11
1133.905298
 21
206.908003
 31
0.0
100
AcDbText
 73
     1
  0
TEXT
  5
3E9
100
AcDbEntity
  8
2
  6
Continuous
 62
   174
100
AcDbText
 10
1115.316144
 20
170.443148
 30
0.0
 40
20.0
  1
 取付長（L) 225
 41
0.681818
 11
1115.316144
 21
170.443148
 31
0.0
100
AcDbText
 73
     1
  0
TEXT
  5
3EA
100
AcDbEntity
  8
2
  6
Continuous
 62
   174
100
AcDbText
 10
1433.905298
 20
206.908003
 30
0.0
 40
30.0
  1
100A　G5
 41
0.540124
 11
1433.905298
 21
206.908003
 31
0.0
100
AcDbText
 73
     1
  0
TEXT
  5
3EB
100
AcDbEntity
  8
2
  6
Continuous
 62
   174
100
AcDbText
 10
1415.316144
 20
170.443148
 30
0.0
 40
20.0
  1
 取付長（L) 235
 41
0.681818
 11
1415.316144
 21
170.443148
 31
0.0
100
AcDbText
 73
     1
  0
TEXT
  5
3EC
100
AcDbEntity
  8
2
  6
Continuous
 62
   174
100
AcDbText
 10
1733.905298
 20
206.908003
 30
0.0
 40
30.0
  1
100A　G6
 41
0.540124
 11
1733.905298
 21
206.908003
 31
0.0
100
AcDbText
 73
     1
  0
TEXT
  5
3ED
100
AcDbEntity
  8
2
  6
Continuous
 62
   174
100
AcDbText
 10
1715.316144
 20
170.443148
 30
0.0
 40
20.0
  1
 取付長（L) 255
 41
0.681818
 11
1715.316144
 21
170.443148
 31
0.0
100
AcDbText
 73
     1
  0
TEXT
  5
3EE
100
AcDbEntity
  8
2
  6
Continuous
 62
   174
100
AcDbText
 10
2033.905298
 20
206.908003
 30
0.0
 40
30.0
  1
100A　G7
 41
0.540124
 11
2033.905298
 21
206.908003
 31
0.0
100
AcDbText
 73
     1
  0
TEXT
  5
3EF
100
AcDbEntity
  8
2
  6
Continuous
 62
   174
100
AcDbText
 10
2015.316144
 20
170.443148
 30
0.0
 40
20.0
  1
 取付長（L) 270
 41
0.681818
 11
2015.316144
 21
170.443148
 31
0.0
100
AcDbText
 73
     1
  0
TEXT
  5
3F0
100
AcDbEntity
  8
2
  6
Continuous
 62
   174
100
AcDbText
 10
2333.905298
 20
206.908003
 30
0.0
 40
30.0
  1
100A　G8
 41
0.540124
 11
2333.905298
 21
206.908003
 31
0.0
100
AcDbText
 73
     1
  0
TEXT
  5
3F1
100
AcDbEntity
  8
2
  6
Continuous
 62
   174
100
AcDbText
 10
2315.316144
 20
170.443148
 30
0.0
 40
20.0
  1
 取付長（L) 290
 41
0.681818
 11
2315.316144
 21
170.443148
 31
0.0
100
AcDbText
 73
     1
  0
TEXT
  5
3F2
100
AcDbEntity
  8
2
  6
Continuous
 62
   174
100
AcDbText
 10
2633.905298
 20
206.908003
 30
0.0
 40
30.0
  1
100A　G9
 41
0.540124
 11
2633.905298
 21
206.908003
 31
0.0
100
AcDbText
 73
     1
  0
TEXT
  5
3F3
100
AcDbEntity
  8
2
  6
Continuous
 62
   174
100
AcDbText
 10
2615.316144
 20
170.443148
 30
0.0
 40
20.0
  1
 取付長（L) 310
 41
0.681818
 11
2615.316144
 21
170.443148
 31
0.0
100
AcDbText
 73
     1
  0
TEXT
  5
3F4
100
AcDbEntity
  8
2
  6
Continuous
 62
   174
100
AcDbText
 10
2933.905298
 20
206.908003
 30
0.0
 40
30.0
  1
100A　G10
 41
0.535396
 11
2933.905298
 21
206.908003
 31
0.0
100
AcDbText
 73
     1
  0
TEXT
  5
3F5
100
AcDbEntity
  8
2
  6
Continuous
 62
   174
100
AcDbText
 10
2915.316144
 20
170.443148
 30
0.0
 40
20.0
  1
 取付長（L) 330
 41
0.681818
 11
2915.316144
 21
170.443148
 31
0.0
100
AcDbText
 73
     1
  0
TEXT
  5
3F6
100
AcDbEntity
  8
2
  6
Continuous
 62
   174
100
AcDbText
 10
225.184371
 20
131.15741
 30
0.0
 40
20.0
  1
伸縮量　+20,-20
 41
0.634811
 11
225.184371
 21
131.15741
 31
0.0
100
AcDbText
 73
     1
  0
TEXT
  5
3F7
100
AcDbEntity
  8
2
  6
Continuous
 62
   174
100
AcDbText
 10
525.184371
 20
131.15741
 30
0.0
 40
20.0
  1
伸縮量　+20,-25
 41
0.634811
 11
525.184371
 21
131.15741
 31
0.0
100
AcDbText
 73
     1
  0
TEXT
  5
3F8
100
AcDbEntity
  8
2
  6
Continuous
 62
   174
100
AcDbText
 10
825.184371
 20
131.15741
 30
0.0
 40
20.0
  1
伸縮量　+20,-30
 41
0.634811
 11
825.184371
 21
131.15741
 31
0.0
100
AcDbText
 73
     1
  0
TEXT
  5
3F9
100
AcDbEntity
  8
2
  6
Continuous
 62
   174
100
AcDbText
 10
1125.184371
 20
131.15741
 30
0.0
 40
20.0
  1
伸縮量　+25,-35
 41
0.634811
 11
1125.184371
 21
131.15741
 31
0.0
100
AcDbText
 73
     1
  0
TEXT
  5
3FA
100
AcDbEntity
  8
2
  6
Continuous
 62
   174
100
AcDbText
 10
1425.184371
 20
131.15741
 30
0.0
 40
20.0
  1
伸縮量　+30,-35
 41
0.634811
 11
1425.184371
 21
131.15741
 31
0.0
100
AcDbText
 73
     1
  0
TEXT
  5
3FB
100
AcDbEntity
  8
2
  6
Continuous
 62
   174
100
AcDbText
 10
1725.184371
 20
131.15741
 30
0.0
 40
20.0
  1
伸縮量　+30,-45
 41
0.634811
 11
1725.184371
 21
131.15741
 31
0.0
100
AcDbText
 73
     1
  0
TEXT
  5
3FC
100
AcDbEntity
  8
2
  6
Continuous
 62
   174
100
AcDbText
 10
2025.184371
 20
131.15741
 30
0.0
 40
20.0
  1
伸縮量　+30,-50
 41
0.634811
 11
2025.184371
 21
131.15741
 31
0.0
100
AcDbText
 73
     1
  0
TEXT
  5
3FD
100
AcDbEntity
  8
2
  6
Continuous
 62
   174
100
AcDbText
 10
2325.184371
 20
131.15741
 30
0.0
 40
20.0
  1
伸縮量　+30,-55
 41
0.634811
 11
2325.184371
 21
131.15741
 31
0.0
100
AcDbText
 73
     1
  0
TEXT
  5
3FE
100
AcDbEntity
  8
2
  6
Continuous
 62
   174
100
AcDbText
 10
2625.184371
 20
131.15741
 30
0.0
 40
20.0
  1
伸縮量　+30,-65
 41
0.634811
 11
2625.184371
 21
131.15741
 31
0.0
100
AcDbText
 73
     1
  0
TEXT
  5
3FF
100
AcDbEntity
  8
2
  6
Continuous
 62
   174
100
AcDbText
 10
2925.184371
 20
131.15741
 30
0.0
 40
20.0
  1
伸縮量　+30,-75
 41
0.634811
 11
2925.184371
 21
131.15741
 31
0.0
100
AcDbText
 73
     1
  0
LINE
  5
400
100
AcDbEntity
  8
2
  6
Continuous
 62
   174
100
AcDbLine
 10
227.5
 20
470.0
 30
0.0
 11
300.0
 21
470.0
 31
0.0
  0
LINE
  5
401
100
AcDbEntity
  8
2
  6
Continuous
 62
   174
100
AcDbLine
 10
227.5
 20
300.0
 30
0.0
 11
300.0
 21
300.0
 31
0.0
  0
LINE
  5
402
100
AcDbEntity
  8
2
  6
Continuous
 62
   174
100
AcDbLine
 10
527.5
 20
300.0
 30
0.0
 11
600.0
 21
300.0
 31
0.0
  0
LINE
  5
403
100
AcDbEntity
  8
2
  6
Continuous
 62
   174
100
AcDbLine
 10
527.5
 20
490.0
 30
0.0
 11
600.0
 21
490.0
 31
0.0
  0
LINE
  5
404
100
AcDbEntity
  8
2
  6
Continuous
 62
   174
100
AcDbLine
 10
827.5
 20
510.0
 30
0.0
 11
900.0
 21
510.0
 31
0.0
  0
LINE
  5
405
100
AcDbEntity
  8
2
  6
Continuous
 62
   174
100
AcDbLine
 10
827.5
 20
300.0
 30
0.0
 11
900.0
 21
300.0
 31
0.0
  0
LINE
  5
406
100
AcDbEntity
  8
2
  6
Continuous
 62
   174
100
AcDbLine
 10
1127.5
 20
300.0
 30
0.0
 11
1200.0
 21
300.0
 31
0.0
  0
LINE
  5
407
100
AcDbEntity
  8
2
  6
Continuous
 62
   174
100
AcDbLine
 10
1127.5
 20
525.0
 30
0.0
 11
1200.0
 21
525.0
 31
0.0
  0
LINE
  5
408
100
AcDbEntity
  8
2
  6
Continuous
 62
   174
100
AcDbLine
 10
1427.5
 20
535.0
 30
0.0
 11
1500.0
 21
535.0
 31
0.0
  0
LINE
  5
409
100
AcDbEntity
  8
2
  6
Continuous
 62
   174
100
AcDbLine
 10
1427.5
 20
300.0
 30
0.0
 11
1500.0
 21
300.0
 31
0.0
  0
LINE
  5
40A
100
AcDbEntity
  8
2
  6
Continuous
 62
   174
100
AcDbLine
 10
1727.5
 20
300.0
 30
0.0
 11
1800.0
 21
300.0
 31
0.0
  0
LINE
  5
40B
100
AcDbEntity
  8
2
  6
Continuous
 62
   174
100
AcDbLine
 10
1727.5
 20
555.0
 30
0.0
 11
1800.0
 21
555.0
 31
0.0
  0
LINE
  5
40C
100
AcDbEntity
  8
2
  6
Continuous
 62
   174
100
AcDbLine
 10
2027.5
 20
570.0
 30
0.0
 11
2100.0
 21
570.0
 31
0.0
  0
LINE
  5
40D
100
AcDbEntity
  8
2
  6
Continuous
 62
   174
100
AcDbLine
 10
2027.5
 20
300.0
 30
0.0
 11
2100.0
 21
300.0
 31
0.0
  0
LINE
  5
40E
100
AcDbEntity
  8
2
  6
Continuous
 62
   174
100
AcDbLine
 10
2327.5
 20
300.0
 30
0.0
 11
2400.0
 21
300.0
 31
0.0
  0
LINE
  5
40F
100
AcDbEntity
  8
2
  6
Continuous
 62
   174
100
AcDbLine
 10
2327.5
 20
590.0
 30
0.0
 11
2400.0
 21
590.0
 31
0.0
  0
LINE
  5
410
100
AcDbEntity
  8
2
  6
Continuous
 62
   174
100
AcDbLine
 10
2627.5
 20
610.0
 30
0.0
 11
2700.0
 21
610.0
 31
0.0
  0
LINE
  5
411
100
AcDbEntity
  8
2
  6
Continuous
 62
   174
100
AcDbLine
 10
2627.5
 20
300.0
 30
0.0
 11
2700.0
 21
300.0
 31
0.0
  0
LINE
  5
412
100
AcDbEntity
  8
2
  6
Continuous
 62
   174
100
AcDbLine
 10
2927.5
 20
300.0
 30
0.0
 11
3000.0
 21
300.0
 31
0.0
  0
LINE
  5
413
100
AcDbEntity
  8
2
  6
Continuous
 62
   174
100
AcDbLine
 10
2927.5
 20
630.0
 30
0.0
 11
3000.0
 21
630.0
 31
0.0
  0
LINE
  5
414
100
AcDbEntity
  8
2
  6
Continuous
 62
   174
100
AcDbLine
 10
372.5
 20
303.0
 30
0.0
 11
300.0
 21
303.0
 31
0.0
  0
LINE
  5
415
100
AcDbEntity
  8
2
  6
Continuous
 62
   174
100
AcDbLine
 10
372.5
 20
306.6
 30
0.0
 11
372.5
 21
300.0
 31
0.0
  0
LINE
  5
416
100
AcDbEntity
  8
2
  6
Continuous
 62
   174
100
AcDbLine
 10
300.0
 20
304.3
 30
0.0
 11
372.5
 21
304.3
 31
0.0
  0
LINE
  5
417
100
AcDbEntity
  8
2
  6
Continuous
 62
   174
100
AcDbLine
 10
300.0
 20
306.6
 30
0.0
 11
400.0
 21
306.6
 31
0.0
  0
LINE
  5
418
100
AcDbEntity
  8
2
  6
Continuous
 62
   174
100
AcDbLine
 10
400.0
 20
306.6
 30
0.0
 11
400.0
 21
322.6
 31
0.0
  0
LINE
  5
419
100
AcDbEntity
  8
2
  6
Continuous
 62
   174
100
AcDbLine
 10
400.0
 20
322.6
 30
0.0
 11
300.0
 21
322.6
 31
0.0
  0
LINE
  5
41A
100
AcDbEntity
  8
2
  6
CENTER
 62
   174
100
AcDbLine
 10
382.5
 20
332.6
 30
0.0
 11
382.5
 21
296.6
 31
0.0
  0
LINE
  5
41B
100
AcDbEntity
  8
2
  6
CENTER
 62
   174
100
AcDbLine
 10
382.5
 20
332.6
 30
0.0
 11
382.5
 21
296.6
 31
0.0
  0
LINE
  5
41C
100
AcDbEntity
  8
2
  6
HIDDEN
 62
   174
100
AcDbLine
 10
373.0
 20
322.6
 30
0.0
 11
373.0
 21
306.6
 31
0.0
  0
LINE
  5
41D
100
AcDbEntity
  8
2
  6
HIDDEN
 62
   174
100
AcDbLine
 10
392.0
 20
322.6
 30
0.0
 11
392.0
 21
306.6
 31
0.0
  0
LINE
  5
41E
100
AcDbEntity
  8
2
  6
Continuous
 62
   174
100
AcDbLine
 10
300.0
 20
465.7
 30
0.0
 11
400.0
 21
465.7
 31
0.0
  0
LINE
  5
41F
100
AcDbEntity
  8
2
  6
Continuous
 62
   174
100
AcDbLine
 10
400.0
 20
465.7
 30
0.0
 11
400.0
 21
449.7
 31
0.0
  0
LINE
  5
420
100
AcDbEntity
  8
2
  6
Continuous
 62
   174
100
AcDbLine
 10
400.0
 20
449.7
 30
0.0
 11
300.0
 21
449.7
 31
0.0
  0
LINE
  5
421
100
AcDbEntity
  8
2
  6
CENTER
 62
   174
100
AcDbLine
 10
382.5
 20
439.7
 30
0.0
 11
382.5
 21
475.7
 31
0.0
  0
LINE
  5
422
100
AcDbEntity
  8
2
  6
HIDDEN
 62
   174
100
AcDbLine
 10
373.0
 20
449.7
 30
0.0
 11
373.0
 21
465.7
 31
0.0
  0
LINE
  5
423
100
AcDbEntity
  8
2
  6
HIDDEN
 62
   174
100
AcDbLine
 10
392.0
 20
449.7
 30
0.0
 11
392.0
 21
465.7
 31
0.0
  0
LINE
  5
424
100
AcDbEntity
  8
2
  6
Continuous
 62
   174
100
AcDbLine
 10
372.5
 20
465.7
 30
0.0
 11
372.5
 21
470.0
 31
0.0
  0
LINE
  5
425
100
AcDbEntity
  8
2
  6
Continuous
 62
   174
100
AcDbLine
 10
372.5
 20
467.0
 30
0.0
 11
300.0
 21
467.0
 31
0.0
  0
LINE
  5
426
100
AcDbEntity
  8
2
  6
CENTER
 62
   174
100
AcDbLine
 10
371.0
 20
449.7
 30
0.0
 11
371.0
 21
322.6
 31
0.0
  0
LINE
  5
427
100
AcDbEntity
  8
2
  6
CENTER
 62
   174
100
AcDbLine
 10
367.0
 20
354.41
 30
0.0
 11
357.0
 21
354.41
 31
0.0
  0
LINE
  5
428
100
AcDbEntity
  8
2
  6
Continuous
 62
   174
100
AcDbLine
 10
356.885451
 20
323.523905
 30
0.0
 11
364.321548
 21
330.884704
 31
0.0
  0
ARC
  5
429
100
AcDbEntity
  8
2
  6
Continuous
 62
   174
100
AcDbCircle
 10
357.8
 20
322.6
 30
0.0
 40
1.3
100
AcDbArc
 50
134.707486
 51
180.0
  0
ARC
  5
42A
100
AcDbEntity
  8
2
  6
Continuous
 62
   174
100
AcDbCircle
 10
362.0
 20
333.23
 30
0.0
 40
3.3
100
AcDbArc
 50
-45.192148
 51
42.432476
  0
ARC
  5
42B
100
AcDbEntity
  8
2
  6
Continuous
 62
   174
100
AcDbCircle
 10
362.0
 20
354.41
 30
0.0
 40
3.3
100
AcDbArc
 50
-42.432339
 51
42.431806
  0
LINE
  5
42C
100
AcDbEntity
  8
2
  6
Continuous
 62
   174
100
AcDbLine
 10
356.885451
 20
448.776095
 30
0.0
 11
364.321548
 21
441.415296
 31
0.0
  0
ARC
  5
42D
100
AcDbEntity
  8
2
  6
Continuous
 62
   174
100
AcDbCircle
 10
357.8
 20
449.7
 30
0.0
 40
1.3
100
AcDbArc
 50
180.0
 51
-134.707486
  0
ARC
  5
42E
100
AcDbEntity
  8
2
  6
Continuous
 62
   174
100
AcDbCircle
 10
362.0
 20
439.07
 30
0.0
 40
3.3
100
AcDbArc
 50
-42.432476
 51
45.192148
  0
ARC
  5
42F
100
AcDbEntity
  8
2
  6
Continuous
 62
   174
100
AcDbCircle
 10
362.0
 20
417.89
 30
0.0
 40
3.3
100
AcDbArc
 50
-42.431806
 51
42.432339
  0
LINE
  5
430
100
AcDbEntity
  8
2
  6
CENTER
 62
   174
100
AcDbLine
 10
365.3
 20
417.89
 30
0.0
 11
365.3
 21
354.41
 31
0.0
  0
LINE
  5
431
100
AcDbEntity
  8
2
  6
Continuous
 62
   174
100
AcDbLine
 10
362.0
 20
439.07
 30
0.0
 11
300.0
 21
439.07
 31
0.0
  0
LINE
  5
432
100
AcDbEntity
  8
2
  6
Continuous
 62
   174
100
AcDbLine
 10
359.5
 20
430.48
 30
0.0
 11
300.0
 21
430.48
 31
0.0
  0
LINE
  5
433
100
AcDbEntity
  8
2
  6
Continuous
 62
   174
100
AcDbLine
 10
359.5
 20
426.48
 30
0.0
 11
300.0
 21
426.48
 31
0.0
  0
LINE
  5
434
100
AcDbEntity
  8
2
  6
Continuous
 62
   174
100
AcDbLine
 10
362.0
 20
417.89
 30
0.0
 11
300.0
 21
417.89
 31
0.0
  0
LINE
  5
435
100
AcDbEntity
  8
2
  6
Continuous
 62
   174
100
AcDbLine
 10
359.5
 20
409.3
 30
0.0
 11
300.0
 21
409.3
 31
0.0
  0
LINE
  5
436
100
AcDbEntity
  8
2
  6
Continuous
 62
   174
100
AcDbLine
 10
359.5
 20
405.3
 30
0.0
 11
300.0
 21
405.3
 31
0.0
  0
LINE
  5
437
100
AcDbEntity
  8
2
  6
Continuous
 62
   174
100
AcDbLine
 10
359.5
 20
367.0
 30
0.0
 11
300.0
 21
367.0
 31
0.0
  0
LINE
  5
438
100
AcDbEntity
  8
2
  6
Continuous
 62
   174
100
AcDbLine
 10
359.5
 20
363.0
 30
0.0
 11
300.0
 21
363.0
 31
0.0
  0
LINE
  5
439
100
AcDbEntity
  8
2
  6
Continuous
 62
   174
100
AcDbLine
 10
362.0
 20
354.41
 30
0.0
 11
300.0
 21
354.41
 31
0.0
  0
LINE
  5
43A
100
AcDbEntity
  8
2
  6
Continuous
 62
   174
100
AcDbLine
 10
359.5
 20
345.82
 30
0.0
 11
300.0
 21
345.82
 31
0.0
  0
LINE
  5
43B
100
AcDbEntity
  8
2
  6
Continuous
 62
   174
100
AcDbLine
 10
359.5
 20
341.82
 30
0.0
 11
300.0
 21
341.82
 31
0.0
  0
LINE
  5
43C
100
AcDbEntity
  8
2
  6
Continuous
 62
   174
100
AcDbLine
 10
362.0
 20
333.23
 30
0.0
 11
300.0
 21
333.23
 31
0.0
  0
ARC
  5
43D
100
AcDbEntity
  8
2
  6
Continuous
 62
   174
100
AcDbCircle
 10
359.5
 20
343.82
 30
0.0
 40
2.0
100
AcDbArc
 50
-90.0
 51
90.0
  0
LINE
  5
43E
100
AcDbEntity
  8
2
  6
Continuous
 62
   174
100
AcDbLine
 10
358.618558
 20
345.82
 30
0.0
 11
364.435667
 21
352.18345
 31
0.0
  0
LINE
  5
43F
100
AcDbEntity
  8
2
  6
Continuous
 62
   174
100
AcDbLine
 10
358.618558
 20
341.82
 30
0.0
 11
364.435667
 21
335.45655
 31
0.0
  0
ARC
  5
440
100
AcDbEntity
  8
2
  6
Continuous
 62
   174
100
AcDbCircle
 10
359.5
 20
365.0
 30
0.0
 40
2.0
100
AcDbArc
 50
-90.0
 51
90.0
  0
LINE
  5
441
100
AcDbEntity
  8
2
  6
Continuous
 62
   174
100
AcDbLine
 10
361.630662
 20
370.295
 30
0.0
 11
358.618558
 21
367.0
 31
0.0
  0
LINE
  5
442
100
AcDbEntity
  8
2
  6
Continuous
 62
   174
100
AcDbLine
 10
358.618558
 20
363.0
 30
0.0
 11
364.435667
 21
356.63655
 31
0.0
  0
LINE
  5
443
100
AcDbEntity
  8
2
  6
CENTER
 62
   174
100
AcDbLine
 10
364.5
 20
365.0
 30
0.0
 11
300.0
 21
365.0
 31
0.0
  0
LINE
  5
444
100
AcDbEntity
  8
2
  6
CENTER
 62
   174
100
AcDbLine
 10
364.5
 20
343.82
 30
0.0
 11
300.0
 21
343.82
 31
0.0
  0
LINE
  5
445
100
AcDbEntity
  8
2
  6
CENTER
 62
   174
100
AcDbLine
 10
364.5
 20
407.3
 30
0.0
 11
300.0
 21
407.3
 31
0.0
  0
ARC
  5
446
100
AcDbEntity
  8
2
  6
Continuous
 62
   174
100
AcDbCircle
 10
359.5
 20
407.3
 30
0.0
 40
2.0
100
AcDbArc
 50
-90.0
 51
90.0
  0
LINE
  5
447
100
AcDbEntity
  8
2
  6
Continuous
 62
   174
100
AcDbLine
 10
361.630662
 20
402.005
 30
0.0
 11
358.618558
 21
405.3
 31
0.0
  0
LINE
  5
448
100
AcDbEntity
  8
2
  6
Continuous
 62
   174
100
AcDbLine
 10
358.618558
 20
409.3
 30
0.0
 11
364.435667
 21
415.66345
 31
0.0
  0
LINE
  5
449
100
AcDbEntity
  8
2
  6
CENTER
 62
   174
100
AcDbLine
 10
364.5
 20
428.48
 30
0.0
 11
300.0
 21
428.48
 31
0.0
  0
ARC
  5
44A
100
AcDbEntity
  8
2
  6
Continuous
 62
   174
100
AcDbCircle
 10
359.5
 20
428.48
 30
0.0
 40
2.0
100
AcDbArc
 50
-90.0
 51
90.0
  0
LINE
  5
44B
100
AcDbEntity
  8
2
  6
Continuous
 62
   174
100
AcDbLine
 10
358.618558
 20
430.48
 30
0.0
 11
364.435667
 21
436.84345
 31
0.0
  0
LINE
  5
44C
100
AcDbEntity
  8
2
  6
Continuous
 62
   174
100
AcDbLine
 10
358.618558
 20
426.48
 30
0.0
 11
364.435667
 21
420.11655
 31
0.0
  0
LINE
  5
44D
100
AcDbEntity
  8
2
  6
Continuous
 62
   174
100
AcDbLine
 10
372.5
 20
470.0
 30
0.0
 11
300.0
 21
470.0
 31
0.0
  0
LINE
  5
44E
100
AcDbEntity
  8
2
  6
Continuous
 62
   174
100
AcDbLine
 10
372.5
 20
300.0
 30
0.0
 11
300.0
 21
300.0
 31
0.0
  0
LINE
  5
44F
100
AcDbEntity
  8
2
  6
Continuous
 62
   174
100
AcDbLine
 10
672.5
 20
303.0
 30
0.0
 11
600.0
 21
303.0
 31
0.0
  0
LINE
  5
450
100
AcDbEntity
  8
2
  6
Continuous
 62
   174
100
AcDbLine
 10
672.5
 20
306.6
 30
0.0
 11
672.5
 21
300.0
 31
0.0
  0
LINE
  5
451
100
AcDbEntity
  8
2
  6
Continuous
 62
   174
100
AcDbLine
 10
600.0
 20
304.3
 30
0.0
 11
672.5
 21
304.3
 31
0.0
  0
LINE
  5
452
100
AcDbEntity
  8
2
  6
Continuous
 62
   174
100
AcDbLine
 10
600.0
 20
306.6
 30
0.0
 11
700.0
 21
306.6
 31
0.0
  0
LINE
  5
453
100
AcDbEntity
  8
2
  6
Continuous
 62
   174
100
AcDbLine
 10
700.0
 20
306.6
 30
0.0
 11
700.0
 21
322.6
 31
0.0
  0
LINE
  5
454
100
AcDbEntity
  8
2
  6
Continuous
 62
   174
100
AcDbLine
 10
700.0
 20
322.6
 30
0.0
 11
600.0
 21
322.6
 31
0.0
  0
LINE
  5
455
100
AcDbEntity
  8
2
  6
CENTER
 62
   174
100
AcDbLine
 10
682.5
 20
332.6
 30
0.0
 11
682.5
 21
296.6
 31
0.0
  0
LINE
  5
456
100
AcDbEntity
  8
2
  6
CENTER
 62
   174
100
AcDbLine
 10
682.5
 20
332.6
 30
0.0
 11
682.5
 21
296.6
 31
0.0
  0
LINE
  5
457
100
AcDbEntity
  8
2
  6
HIDDEN
 62
   174
100
AcDbLine
 10
673.0
 20
322.6
 30
0.0
 11
673.0
 21
306.6
 31
0.0
  0
LINE
  5
458
100
AcDbEntity
  8
2
  6
HIDDEN
 62
   174
100
AcDbLine
 10
692.0
 20
322.6
 30
0.0
 11
692.0
 21
306.6
 31
0.0
  0
LINE
  5
459
100
AcDbEntity
  8
2
  6
CENTER
 62
   174
100
AcDbLine
 10
667.0
 20
354.41
 30
0.0
 11
657.0
 21
354.41
 31
0.0
  0
LINE
  5
45A
100
AcDbEntity
  8
2
  6
Continuous
 62
   174
100
AcDbLine
 10
656.885451
 20
323.523905
 30
0.0
 11
664.321548
 21
330.884704
 31
0.0
  0
ARC
  5
45B
100
AcDbEntity
  8
2
  6
Continuous
 62
   174
100
AcDbCircle
 10
657.8
 20
322.6
 30
0.0
 40
1.3
100
AcDbArc
 50
134.707486
 51
180.0
  0
ARC
  5
45C
100
AcDbEntity
  8
2
  6
Continuous
 62
   174
100
AcDbCircle
 10
662.0
 20
333.23
 30
0.0
 40
3.3
100
AcDbArc
 50
-45.192148
 51
42.432476
  0
ARC
  5
45D
100
AcDbEntity
  8
2
  6
Continuous
 62
   174
100
AcDbCircle
 10
662.0
 20
354.41
 30
0.0
 40
3.3
100
AcDbArc
 50
-42.432339
 51
42.431806
  0
LINE
  5
45E
100
AcDbEntity
  8
2
  6
Continuous
 62
   174
100
AcDbLine
 10
659.5
 20
367.0
 30
0.0
 11
600.0
 21
367.0
 31
0.0
  0
LINE
  5
45F
100
AcDbEntity
  8
2
  6
Continuous
 62
   174
100
AcDbLine
 10
659.5
 20
363.0
 30
0.0
 11
600.0
 21
363.0
 31
0.0
  0
LINE
  5
460
100
AcDbEntity
  8
2
  6
Continuous
 62
   174
100
AcDbLine
 10
662.0
 20
354.41
 30
0.0
 11
600.0
 21
354.41
 31
0.0
  0
LINE
  5
461
100
AcDbEntity
  8
2
  6
Continuous
 62
   174
100
AcDbLine
 10
659.5
 20
345.82
 30
0.0
 11
600.0
 21
345.82
 31
0.0
  0
LINE
  5
462
100
AcDbEntity
  8
2
  6
Continuous
 62
   174
100
AcDbLine
 10
659.5
 20
341.82
 30
0.0
 11
600.0
 21
341.82
 31
0.0
  0
LINE
  5
463
100
AcDbEntity
  8
2
  6
Continuous
 62
   174
100
AcDbLine
 10
662.0
 20
333.23
 30
0.0
 11
600.0
 21
333.23
 31
0.0
  0
ARC
  5
464
100
AcDbEntity
  8
2
  6
Continuous
 62
   174
100
AcDbCircle
 10
659.5
 20
343.82
 30
0.0
 40
2.0
100
AcDbArc
 50
-90.0
 51
90.0
  0
LINE
  5
465
100
AcDbEntity
  8
2
  6
Continuous
 62
   174
100
AcDbLine
 10
658.618558
 20
345.82
 30
0.0
 11
664.435667
 21
352.18345
 31
0.0
  0
LINE
  5
466
100
AcDbEntity
  8
2
  6
Continuous
 62
   174
100
AcDbLine
 10
658.618558
 20
341.82
 30
0.0
 11
664.435667
 21
335.45655
 31
0.0
  0
ARC
  5
467
100
AcDbEntity
  8
2
  6
Continuous
 62
   174
100
AcDbCircle
 10
659.5
 20
365.0
 30
0.0
 40
2.0
100
AcDbArc
 50
-90.0
 51
90.0
  0
LINE
  5
468
100
AcDbEntity
  8
2
  6
Continuous
 62
   174
100
AcDbLine
 10
661.630662
 20
370.295
 30
0.0
 11
658.618558
 21
367.0
 31
0.0
  0
LINE
  5
469
100
AcDbEntity
  8
2
  6
Continuous
 62
   174
100
AcDbLine
 10
658.618558
 20
363.0
 30
0.0
 11
664.435667
 21
356.63655
 31
0.0
  0
LINE
  5
46A
100
AcDbEntity
  8
2
  6
CENTER
 62
   174
100
AcDbLine
 10
664.5
 20
365.0
 30
0.0
 11
600.0
 21
365.0
 31
0.0
  0
LINE
  5
46B
100
AcDbEntity
  8
2
  6
CENTER
 62
   174
100
AcDbLine
 10
664.5
 20
343.82
 30
0.0
 11
600.0
 21
343.82
 31
0.0
  0
LINE
  5
46C
100
AcDbEntity
  8
2
  6
Continuous
 62
   174
100
AcDbLine
 10
600.0
 20
485.7
 30
0.0
 11
700.0
 21
485.7
 31
0.0
  0
LINE
  5
46D
100
AcDbEntity
  8
2
  6
Continuous
 62
   174
100
AcDbLine
 10
700.0
 20
485.7
 30
0.0
 11
700.0
 21
469.7
 31
0.0
  0
LINE
  5
46E
100
AcDbEntity
  8
2
  6
Continuous
 62
   174
100
AcDbLine
 10
700.0
 20
469.7
 30
0.0
 11
600.0
 21
469.7
 31
0.0
  0
LINE
  5
46F
100
AcDbEntity
  8
2
  6
CENTER
 62
   174
100
AcDbLine
 10
682.5
 20
459.7
 30
0.0
 11
682.5
 21
495.7
 31
0.0
  0
LINE
  5
470
100
AcDbEntity
  8
2
  6
HIDDEN
 62
   174
100
AcDbLine
 10
673.0
 20
469.7
 30
0.0
 11
673.0
 21
485.7
 31
0.0
  0
LINE
  5
471
100
AcDbEntity
  8
2
  6
HIDDEN
 62
   174
100
AcDbLine
 10
692.0
 20
469.7
 30
0.0
 11
692.0
 21
485.7
 31
0.0
  0
LINE
  5
472
100
AcDbEntity
  8
2
  6
Continuous
 62
   174
100
AcDbLine
 10
672.5
 20
485.7
 30
0.0
 11
672.5
 21
490.0
 31
0.0
  0
LINE
  5
473
100
AcDbEntity
  8
2
  6
Continuous
 62
   174
100
AcDbLine
 10
672.5
 20
487.0
 30
0.0
 11
600.0
 21
487.0
 31
0.0
  0
LINE
  5
474
100
AcDbEntity
  8
2
  6
CENTER
 62
   174
100
AcDbLine
 10
671.0
 20
469.7
 30
0.0
 11
671.0
 21
322.6
 31
0.0
  0
LINE
  5
475
100
AcDbEntity
  8
2
  6
Continuous
 62
   174
100
AcDbLine
 10
656.885451
 20
468.776095
 30
0.0
 11
664.321548
 21
461.415296
 31
0.0
  0
ARC
  5
476
100
AcDbEntity
  8
2
  6
Continuous
 62
   174
100
AcDbCircle
 10
657.8
 20
469.7
 30
0.0
 40
1.3
100
AcDbArc
 50
180.0
 51
-134.707486
  0
ARC
  5
477
100
AcDbEntity
  8
2
  6
Continuous
 62
   174
100
AcDbCircle
 10
662.0
 20
459.07
 30
0.0
 40
3.3
100
AcDbArc
 50
-42.432476
 51
45.192148
  0
ARC
  5
478
100
AcDbEntity
  8
2
  6
Continuous
 62
   174
100
AcDbCircle
 10
662.0
 20
437.89
 30
0.0
 40
3.3
100
AcDbArc
 50
-42.431806
 51
42.432339
  0
LINE
  5
479
100
AcDbEntity
  8
2
  6
CENTER
 62
   174
100
AcDbLine
 10
665.3
 20
437.89
 30
0.0
 11
665.3
 21
354.41
 31
0.0
  0
LINE
  5
47A
100
AcDbEntity
  8
2
  6
Continuous
 62
   174
100
AcDbLine
 10
662.0
 20
459.07
 30
0.0
 11
600.0
 21
459.07
 31
0.0
  0
LINE
  5
47B
100
AcDbEntity
  8
2
  6
Continuous
 62
   174
100
AcDbLine
 10
659.5
 20
450.48
 30
0.0
 11
600.0
 21
450.48
 31
0.0
  0
LINE
  5
47C
100
AcDbEntity
  8
2
  6
Continuous
 62
   174
100
AcDbLine
 10
659.5
 20
446.48
 30
0.0
 11
600.0
 21
446.48
 31
0.0
  0
LINE
  5
47D
100
AcDbEntity
  8
2
  6
Continuous
 62
   174
100
AcDbLine
 10
662.0
 20
437.89
 30
0.0
 11
600.0
 21
437.89
 31
0.0
  0
LINE
  5
47E
100
AcDbEntity
  8
2
  6
Continuous
 62
   174
100
AcDbLine
 10
659.5
 20
429.3
 30
0.0
 11
600.0
 21
429.3
 31
0.0
  0
LINE
  5
47F
100
AcDbEntity
  8
2
  6
Continuous
 62
   174
100
AcDbLine
 10
659.5
 20
425.3
 30
0.0
 11
600.0
 21
425.3
 31
0.0
  0
LINE
  5
480
100
AcDbEntity
  8
2
  6
CENTER
 62
   174
100
AcDbLine
 10
664.5
 20
427.3
 30
0.0
 11
600.0
 21
427.3
 31
0.0
  0
ARC
  5
481
100
AcDbEntity
  8
2
  6
Continuous
 62
   174
100
AcDbCircle
 10
659.5
 20
427.3
 30
0.0
 40
2.0
100
AcDbArc
 50
-90.0
 51
90.0
  0
LINE
  5
482
100
AcDbEntity
  8
2
  6
Continuous
 62
   174
100
AcDbLine
 10
661.630662
 20
422.005
 30
0.0
 11
658.618558
 21
425.3
 31
0.0
  0
LINE
  5
483
100
AcDbEntity
  8
2
  6
Continuous
 62
   174
100
AcDbLine
 10
658.618558
 20
429.3
 30
0.0
 11
664.435667
 21
435.66345
 31
0.0
  0
LINE
  5
484
100
AcDbEntity
  8
2
  6
CENTER
 62
   174
100
AcDbLine
 10
664.5
 20
448.48
 30
0.0
 11
600.0
 21
448.48
 31
0.0
  0
ARC
  5
485
100
AcDbEntity
  8
2
  6
Continuous
 62
   174
100
AcDbCircle
 10
659.5
 20
448.48
 30
0.0
 40
2.0
100
AcDbArc
 50
-90.0
 51
90.0
  0
LINE
  5
486
100
AcDbEntity
  8
2
  6
Continuous
 62
   174
100
AcDbLine
 10
658.618558
 20
450.48
 30
0.0
 11
664.435667
 21
456.84345
 31
0.0
  0
LINE
  5
487
100
AcDbEntity
  8
2
  6
Continuous
 62
   174
100
AcDbLine
 10
658.618558
 20
446.48
 30
0.0
 11
664.435667
 21
440.11655
 31
0.0
  0
LINE
  5
488
100
AcDbEntity
  8
2
  6
Continuous
 62
   174
100
AcDbLine
 10
672.5
 20
300.0
 30
0.0
 11
600.0
 21
300.0
 31
0.0
  0
LINE
  5
489
100
AcDbEntity
  8
2
  6
Continuous
 62
   174
100
AcDbLine
 10
672.5
 20
490.0
 30
0.0
 11
600.0
 21
490.0
 31
0.0
  0
LINE
  5
48A
100
AcDbEntity
  8
2
  6
Continuous
 62
   174
100
AcDbLine
 10
972.5
 20
303.0
 30
0.0
 11
900.0
 21
303.0
 31
0.0
  0
LINE
  5
48B
100
AcDbEntity
  8
2
  6
Continuous
 62
   174
100
AcDbLine
 10
972.5
 20
306.6
 30
0.0
 11
972.5
 21
300.0
 31
0.0
  0
LINE
  5
48C
100
AcDbEntity
  8
2
  6
Continuous
 62
   174
100
AcDbLine
 10
900.0
 20
304.3
 30
0.0
 11
972.5
 21
304.3
 31
0.0
  0
LINE
  5
48D
100
AcDbEntity
  8
2
  6
Continuous
 62
   174
100
AcDbLine
 10
900.0
 20
306.6
 30
0.0
 11
1000.0
 21
306.6
 31
0.0
  0
LINE
  5
48E
100
AcDbEntity
  8
2
  6
Continuous
 62
   174
100
AcDbLine
 10
1000.0
 20
306.6
 30
0.0
 11
1000.0
 21
322.6
 31
0.0
  0
LINE
  5
48F
100
AcDbEntity
  8
2
  6
Continuous
 62
   174
100
AcDbLine
 10
1000.0
 20
322.6
 30
0.0
 11
900.0
 21
322.6
 31
0.0
  0
LINE
  5
490
100
AcDbEntity
  8
2
  6
CENTER
 62
   174
100
AcDbLine
 10
982.5
 20
332.6
 30
0.0
 11
982.5
 21
296.6
 31
0.0
  0
LINE
  5
491
100
AcDbEntity
  8
2
  6
CENTER
 62
   174
100
AcDbLine
 10
982.5
 20
332.6
 30
0.0
 11
982.5
 21
296.6
 31
0.0
  0
LINE
  5
492
100
AcDbEntity
  8
2
  6
HIDDEN
 62
   174
100
AcDbLine
 10
973.0
 20
322.6
 30
0.0
 11
973.0
 21
306.6
 31
0.0
  0
LINE
  5
493
100
AcDbEntity
  8
2
  6
HIDDEN
 62
   174
100
AcDbLine
 10
992.0
 20
322.6
 30
0.0
 11
992.0
 21
306.6
 31
0.0
  0
LINE
  5
494
100
AcDbEntity
  8
2
  6
CENTER
 62
   174
100
AcDbLine
 10
967.0
 20
354.41
 30
0.0
 11
957.0
 21
354.41
 31
0.0
  0
LINE
  5
495
100
AcDbEntity
  8
2
  6
Continuous
 62
   174
100
AcDbLine
 10
956.885451
 20
323.523905
 30
0.0
 11
964.321548
 21
330.884704
 31
0.0
  0
ARC
  5
496
100
AcDbEntity
  8
2
  6
Continuous
 62
   174
100
AcDbCircle
 10
957.8
 20
322.6
 30
0.0
 40
1.3
100
AcDbArc
 50
134.707486
 51
180.0
  0
ARC
  5
497
100
AcDbEntity
  8
2
  6
Continuous
 62
   174
100
AcDbCircle
 10
962.0
 20
333.23
 30
0.0
 40
3.3
100
AcDbArc
 50
-45.192148
 51
42.432476
  0
ARC
  5
498
100
AcDbEntity
  8
2
  6
Continuous
 62
   174
100
AcDbCircle
 10
962.0
 20
354.41
 30
0.0
 40
3.3
100
AcDbArc
 50
-42.432339
 51
42.431806
  0
LINE
  5
499
100
AcDbEntity
  8
2
  6
Continuous
 62
   174
100
AcDbLine
 10
959.5
 20
367.0
 30
0.0
 11
900.0
 21
367.0
 31
0.0
  0
LINE
  5
49A
100
AcDbEntity
  8
2
  6
Continuous
 62
   174
100
AcDbLine
 10
959.5
 20
363.0
 30
0.0
 11
900.0
 21
363.0
 31
0.0
  0
LINE
  5
49B
100
AcDbEntity
  8
2
  6
Continuous
 62
   174
100
AcDbLine
 10
962.0
 20
354.41
 30
0.0
 11
900.0
 21
354.41
 31
0.0
  0
LINE
  5
49C
100
AcDbEntity
  8
2
  6
Continuous
 62
   174
100
AcDbLine
 10
959.5
 20
345.82
 30
0.0
 11
900.0
 21
345.82
 31
0.0
  0
LINE
  5
49D
100
AcDbEntity
  8
2
  6
Continuous
 62
   174
100
AcDbLine
 10
959.5
 20
341.82
 30
0.0
 11
900.0
 21
341.82
 31
0.0
  0
LINE
  5
49E
100
AcDbEntity
  8
2
  6
Continuous
 62
   174
100
AcDbLine
 10
962.0
 20
333.23
 30
0.0
 11
900.0
 21
333.23
 31
0.0
  0
ARC
  5
49F
100
AcDbEntity
  8
2
  6
Continuous
 62
   174
100
AcDbCircle
 10
959.5
 20
343.82
 30
0.0
 40
2.0
100
AcDbArc
 50
-90.0
 51
90.0
  0
LINE
  5
4A0
100
AcDbEntity
  8
2
  6
Continuous
 62
   174
100
AcDbLine
 10
958.618558
 20
345.82
 30
0.0
 11
964.435667
 21
352.18345
 31
0.0
  0
LINE
  5
4A1
100
AcDbEntity
  8
2
  6
Continuous
 62
   174
100
AcDbLine
 10
958.618558
 20
341.82
 30
0.0
 11
964.435667
 21
335.45655
 31
0.0
  0
ARC
  5
4A2
100
AcDbEntity
  8
2
  6
Continuous
 62
   174
100
AcDbCircle
 10
959.5
 20
365.0
 30
0.0
 40
2.0
100
AcDbArc
 50
-90.0
 51
90.0
  0
LINE
  5
4A3
100
AcDbEntity
  8
2
  6
Continuous
 62
   174
100
AcDbLine
 10
961.630662
 20
370.295
 30
0.0
 11
958.618558
 21
367.0
 31
0.0
  0
LINE
  5
4A4
100
AcDbEntity
  8
2
  6
Continuous
 62
   174
100
AcDbLine
 10
958.618558
 20
363.0
 30
0.0
 11
964.435667
 21
356.63655
 31
0.0
  0
LINE
  5
4A5
100
AcDbEntity
  8
2
  6
CENTER
 62
   174
100
AcDbLine
 10
964.5
 20
365.0
 30
0.0
 11
900.0
 21
365.0
 31
0.0
  0
LINE
  5
4A6
100
AcDbEntity
  8
2
  6
CENTER
 62
   174
100
AcDbLine
 10
964.5
 20
343.82
 30
0.0
 11
900.0
 21
343.82
 31
0.0
  0
LINE
  5
4A7
100
AcDbEntity
  8
2
  6
Continuous
 62
   174
100
AcDbLine
 10
900.0
 20
505.7
 30
0.0
 11
1000.0
 21
505.7
 31
0.0
  0
LINE
  5
4A8
100
AcDbEntity
  8
2
  6
Continuous
 62
   174
100
AcDbLine
 10
1000.0
 20
505.7
 30
0.0
 11
1000.0
 21
489.7
 31
0.0
  0
LINE
  5
4A9
100
AcDbEntity
  8
2
  6
Continuous
 62
   174
100
AcDbLine
 10
1000.0
 20
489.7
 30
0.0
 11
900.0
 21
489.7
 31
0.0
  0
LINE
  5
4AA
100
AcDbEntity
  8
2
  6
CENTER
 62
   174
100
AcDbLine
 10
982.5
 20
479.7
 30
0.0
 11
982.5
 21
515.7
 31
0.0
  0
LINE
  5
4AB
100
AcDbEntity
  8
2
  6
HIDDEN
 62
   174
100
AcDbLine
 10
973.0
 20
489.7
 30
0.0
 11
973.0
 21
505.7
 31
0.0
  0
LINE
  5
4AC
100
AcDbEntity
  8
2
  6
HIDDEN
 62
   174
100
AcDbLine
 10
992.0
 20
489.7
 30
0.0
 11
992.0
 21
505.7
 31
0.0
  0
LINE
  5
4AD
100
AcDbEntity
  8
2
  6
Continuous
 62
   174
100
AcDbLine
 10
972.5
 20
505.7
 30
0.0
 11
972.5
 21
510.0
 31
0.0
  0
LINE
  5
4AE
100
AcDbEntity
  8
2
  6
Continuous
 62
   174
100
AcDbLine
 10
972.5
 20
507.0
 30
0.0
 11
900.0
 21
507.0
 31
0.0
  0
LINE
  5
4AF
100
AcDbEntity
  8
2
  6
CENTER
 62
   174
100
AcDbLine
 10
971.0
 20
489.7
 30
0.0
 11
971.0
 21
322.6
 31
0.0
  0
LINE
  5
4B0
100
AcDbEntity
  8
2
  6
Continuous
 62
   174
100
AcDbLine
 10
956.885451
 20
488.776095
 30
0.0
 11
964.321548
 21
481.415296
 31
0.0
  0
ARC
  5
4B1
100
AcDbEntity
  8
2
  6
Continuous
 62
   174
100
AcDbCircle
 10
957.8
 20
489.7
 30
0.0
 40
1.3
100
AcDbArc
 50
180.0
 51
-134.707486
  0
ARC
  5
4B2
100
AcDbEntity
  8
2
  6
Continuous
 62
   174
100
AcDbCircle
 10
962.0
 20
479.07
 30
0.0
 40
3.3
100
AcDbArc
 50
-42.432476
 51
45.192148
  0
ARC
  5
4B3
100
AcDbEntity
  8
2
  6
Continuous
 62
   174
100
AcDbCircle
 10
962.0
 20
457.89
 30
0.0
 40
3.3
100
AcDbArc
 50
-42.431806
 51
42.432339
  0
LINE
  5
4B4
100
AcDbEntity
  8
2
  6
CENTER
 62
   174
100
AcDbLine
 10
965.3
 20
457.89
 30
0.0
 11
965.3
 21
354.41
 31
0.0
  0
LINE
  5
4B5
100
AcDbEntity
  8
2
  6
Continuous
 62
   174
100
AcDbLine
 10
962.0
 20
479.07
 30
0.0
 11
900.0
 21
479.07
 31
0.0
  0
LINE
  5
4B6
100
AcDbEntity
  8
2
  6
Continuous
 62
   174
100
AcDbLine
 10
959.5
 20
470.48
 30
0.0
 11
900.0
 21
470.48
 31
0.0
  0
LINE
  5
4B7
100
AcDbEntity
  8
2
  6
Continuous
 62
   174
100
AcDbLine
 10
959.5
 20
466.48
 30
0.0
 11
900.0
 21
466.48
 31
0.0
  0
LINE
  5
4B8
100
AcDbEntity
  8
2
  6
Continuous
 62
   174
100
AcDbLine
 10
962.0
 20
457.89
 30
0.0
 11
900.0
 21
457.89
 31
0.0
  0
LINE
  5
4B9
100
AcDbEntity
  8
2
  6
Continuous
 62
   174
100
AcDbLine
 10
959.5
 20
449.3
 30
0.0
 11
900.0
 21
449.3
 31
0.0
  0
LINE
  5
4BA
100
AcDbEntity
  8
2
  6
Continuous
 62
   174
100
AcDbLine
 10
959.5
 20
445.3
 30
0.0
 11
900.0
 21
445.3
 31
0.0
  0
LINE
  5
4BB
100
AcDbEntity
  8
2
  6
CENTER
 62
   174
100
AcDbLine
 10
964.5
 20
447.3
 30
0.0
 11
900.0
 21
447.3
 31
0.0
  0
ARC
  5
4BC
100
AcDbEntity
  8
2
  6
Continuous
 62
   174
100
AcDbCircle
 10
959.5
 20
447.3
 30
0.0
 40
2.0
100
AcDbArc
 50
-90.0
 51
90.0
  0
LINE
  5
4BD
100
AcDbEntity
  8
2
  6
Continuous
 62
   174
100
AcDbLine
 10
961.630662
 20
442.005
 30
0.0
 11
958.618558
 21
445.3
 31
0.0
  0
LINE
  5
4BE
100
AcDbEntity
  8
2
  6
Continuous
 62
   174
100
AcDbLine
 10
958.618558
 20
449.3
 30
0.0
 11
964.435667
 21
455.66345
 31
0.0
  0
LINE
  5
4BF
100
AcDbEntity
  8
2
  6
CENTER
 62
   174
100
AcDbLine
 10
964.5
 20
468.48
 30
0.0
 11
900.0
 21
468.48
 31
0.0
  0
ARC
  5
4C0
100
AcDbEntity
  8
2
  6
Continuous
 62
   174
100
AcDbCircle
 10
959.5
 20
468.48
 30
0.0
 40
2.0
100
AcDbArc
 50
-90.0
 51
90.0
  0
LINE
  5
4C1
100
AcDbEntity
  8
2
  6
Continuous
 62
   174
100
AcDbLine
 10
958.618558
 20
470.48
 30
0.0
 11
964.435667
 21
476.84345
 31
0.0
  0
LINE
  5
4C2
100
AcDbEntity
  8
2
  6
Continuous
 62
   174
100
AcDbLine
 10
958.618558
 20
466.48
 30
0.0
 11
964.435667
 21
460.11655
 31
0.0
  0
LINE
  5
4C3
100
AcDbEntity
  8
2
  6
Continuous
 62
   174
100
AcDbLine
 10
972.5
 20
510.0
 30
0.0
 11
900.0
 21
510.0
 31
0.0
  0
LINE
  5
4C4
100
AcDbEntity
  8
2
  6
Continuous
 62
   174
100
AcDbLine
 10
972.5
 20
300.0
 30
0.0
 11
900.0
 21
300.0
 31
0.0
  0
LINE
  5
4C5
100
AcDbEntity
  8
2
  6
Continuous
 62
   174
100
AcDbLine
 10
1272.5
 20
303.0
 30
0.0
 11
1200.0
 21
303.0
 31
0.0
  0
LINE
  5
4C6
100
AcDbEntity
  8
2
  6
Continuous
 62
   174
100
AcDbLine
 10
1272.5
 20
306.6
 30
0.0
 11
1272.5
 21
300.0
 31
0.0
  0
LINE
  5
4C7
100
AcDbEntity
  8
2
  6
Continuous
 62
   174
100
AcDbLine
 10
1200.0
 20
304.3
 30
0.0
 11
1272.5
 21
304.3
 31
0.0
  0
LINE
  5
4C8
100
AcDbEntity
  8
2
  6
Continuous
 62
   174
100
AcDbLine
 10
1200.0
 20
306.6
 30
0.0
 11
1300.0
 21
306.6
 31
0.0
  0
LINE
  5
4C9
100
AcDbEntity
  8
2
  6
Continuous
 62
   174
100
AcDbLine
 10
1300.0
 20
306.6
 30
0.0
 11
1300.0
 21
322.6
 31
0.0
  0
LINE
  5
4CA
100
AcDbEntity
  8
2
  6
Continuous
 62
   174
100
AcDbLine
 10
1300.0
 20
322.6
 30
0.0
 11
1200.0
 21
322.6
 31
0.0
  0
LINE
  5
4CB
100
AcDbEntity
  8
2
  6
CENTER
 62
   174
100
AcDbLine
 10
1282.5
 20
332.6
 30
0.0
 11
1282.5
 21
296.6
 31
0.0
  0
LINE
  5
4CC
100
AcDbEntity
  8
2
  6
CENTER
 62
   174
100
AcDbLine
 10
1282.5
 20
332.6
 30
0.0
 11
1282.5
 21
296.6
 31
0.0
  0
LINE
  5
4CD
100
AcDbEntity
  8
2
  6
HIDDEN
 62
   174
100
AcDbLine
 10
1273.0
 20
322.6
 30
0.0
 11
1273.0
 21
306.6
 31
0.0
  0
LINE
  5
4CE
100
AcDbEntity
  8
2
  6
HIDDEN
 62
   174
100
AcDbLine
 10
1292.0
 20
322.6
 30
0.0
 11
1292.0
 21
306.6
 31
0.0
  0
LINE
  5
4CF
100
AcDbEntity
  8
2
  6
CENTER
 62
   174
100
AcDbLine
 10
1267.0
 20
354.41
 30
0.0
 11
1257.0
 21
354.41
 31
0.0
  0
LINE
  5
4D0
100
AcDbEntity
  8
2
  6
Continuous
 62
   174
100
AcDbLine
 10
1256.885451
 20
323.523905
 30
0.0
 11
1264.321548
 21
330.884704
 31
0.0
  0
ARC
  5
4D1
100
AcDbEntity
  8
2
  6
Continuous
 62
   174
100
AcDbCircle
 10
1257.8
 20
322.6
 30
0.0
 40
1.3
100
AcDbArc
 50
134.707486
 51
180.0
  0
ARC
  5
4D2
100
AcDbEntity
  8
2
  6
Continuous
 62
   174
100
AcDbCircle
 10
1262.0
 20
333.23
 30
0.0
 40
3.3
100
AcDbArc
 50
-45.192148
 51
42.432476
  0
ARC
  5
4D3
100
AcDbEntity
  8
2
  6
Continuous
 62
   174
100
AcDbCircle
 10
1262.0
 20
354.41
 30
0.0
 40
3.3
100
AcDbArc
 50
-42.432339
 51
42.431806
  0
LINE
  5
4D4
100
AcDbEntity
  8
2
  6
Continuous
 62
   174
100
AcDbLine
 10
1259.5
 20
367.0
 30
0.0
 11
1200.0
 21
367.0
 31
0.0
  0
LINE
  5
4D5
100
AcDbEntity
  8
2
  6
Continuous
 62
   174
100
AcDbLine
 10
1259.5
 20
363.0
 30
0.0
 11
1200.0
 21
363.0
 31
0.0
  0
LINE
  5
4D6
100
AcDbEntity
  8
2
  6
Continuous
 62
   174
100
AcDbLine
 10
1262.0
 20
354.41
 30
0.0
 11
1200.0
 21
354.41
 31
0.0
  0
LINE
  5
4D7
100
AcDbEntity
  8
2
  6
Continuous
 62
   174
100
AcDbLine
 10
1259.5
 20
345.82
 30
0.0
 11
1200.0
 21
345.82
 31
0.0
  0
LINE
  5
4D8
100
AcDbEntity
  8
2
  6
Continuous
 62
   174
100
AcDbLine
 10
1259.5
 20
341.82
 30
0.0
 11
1200.0
 21
341.82
 31
0.0
  0
LINE
  5
4D9
100
AcDbEntity
  8
2
  6
Continuous
 62
   174
100
AcDbLine
 10
1262.0
 20
333.23
 30
0.0
 11
1200.0
 21
333.23
 31
0.0
  0
ARC
  5
4DA
100
AcDbEntity
  8
2
  6
Continuous
 62
   174
100
AcDbCircle
 10
1259.5
 20
343.82
 30
0.0
 40
2.0
100
AcDbArc
 50
-90.0
 51
90.0
  0
LINE
  5
4DB
100
AcDbEntity
  8
2
  6
Continuous
 62
   174
100
AcDbLine
 10
1258.618558
 20
345.82
 30
0.0
 11
1264.435667
 21
352.18345
 31
0.0
  0
LINE
  5
4DC
100
AcDbEntity
  8
2
  6
Continuous
 62
   174
100
AcDbLine
 10
1258.618558
 20
341.82
 30
0.0
 11
1264.435667
 21
335.45655
 31
0.0
  0
ARC
  5
4DD
100
AcDbEntity
  8
2
  6
Continuous
 62
   174
100
AcDbCircle
 10
1259.5
 20
365.0
 30
0.0
 40
2.0
100
AcDbArc
 50
-90.0
 51
90.0
  0
LINE
  5
4DE
100
AcDbEntity
  8
2
  6
Continuous
 62
   174
100
AcDbLine
 10
1261.630662
 20
370.295
 30
0.0
 11
1258.618558
 21
367.0
 31
0.0
  0
LINE
  5
4DF
100
AcDbEntity
  8
2
  6
Continuous
 62
   174
100
AcDbLine
 10
1258.618558
 20
363.0
 30
0.0
 11
1264.435667
 21
356.63655
 31
0.0
  0
LINE
  5
4E0
100
AcDbEntity
  8
2
  6
CENTER
 62
   174
100
AcDbLine
 10
1264.5
 20
365.0
 30
0.0
 11
1200.0
 21
365.0
 31
0.0
  0
LINE
  5
4E1
100
AcDbEntity
  8
2
  6
CENTER
 62
   174
100
AcDbLine
 10
1264.5
 20
343.82
 30
0.0
 11
1200.0
 21
343.82
 31
0.0
  0
LINE
  5
4E2
100
AcDbEntity
  8
2
  6
Continuous
 62
   174
100
AcDbLine
 10
1200.0
 20
520.7
 30
0.0
 11
1300.0
 21
520.7
 31
0.0
  0
LINE
  5
4E3
100
AcDbEntity
  8
2
  6
Continuous
 62
   174
100
AcDbLine
 10
1300.0
 20
520.7
 30
0.0
 11
1300.0
 21
504.7
 31
0.0
  0
LINE
  5
4E4
100
AcDbEntity
  8
2
  6
Continuous
 62
   174
100
AcDbLine
 10
1300.0
 20
504.7
 30
0.0
 11
1200.0
 21
504.7
 31
0.0
  0
LINE
  5
4E5
100
AcDbEntity
  8
2
  6
CENTER
 62
   174
100
AcDbLine
 10
1282.5
 20
494.7
 30
0.0
 11
1282.5
 21
530.7
 31
0.0
  0
LINE
  5
4E6
100
AcDbEntity
  8
2
  6
HIDDEN
 62
   174
100
AcDbLine
 10
1273.0
 20
504.7
 30
0.0
 11
1273.0
 21
520.7
 31
0.0
  0
LINE
  5
4E7
100
AcDbEntity
  8
2
  6
HIDDEN
 62
   174
100
AcDbLine
 10
1292.0
 20
504.7
 30
0.0
 11
1292.0
 21
520.7
 31
0.0
  0
LINE
  5
4E8
100
AcDbEntity
  8
2
  6
Continuous
 62
   174
100
AcDbLine
 10
1272.5
 20
520.7
 30
0.0
 11
1272.5
 21
525.0
 31
0.0
  0
LINE
  5
4E9
100
AcDbEntity
  8
2
  6
Continuous
 62
   174
100
AcDbLine
 10
1272.5
 20
522.0
 30
0.0
 11
1200.0
 21
522.0
 31
0.0
  0
LINE
  5
4EA
100
AcDbEntity
  8
2
  6
CENTER
 62
   174
100
AcDbLine
 10
1271.0
 20
504.7
 30
0.0
 11
1271.0
 21
322.6
 31
0.0
  0
LINE
  5
4EB
100
AcDbEntity
  8
2
  6
Continuous
 62
   174
100
AcDbLine
 10
1256.885451
 20
503.776095
 30
0.0
 11
1264.321548
 21
496.415296
 31
0.0
  0
ARC
  5
4EC
100
AcDbEntity
  8
2
  6
Continuous
 62
   174
100
AcDbCircle
 10
1257.8
 20
504.7
 30
0.0
 40
1.3
100
AcDbArc
 50
180.0
 51
-134.707486
  0
ARC
  5
4ED
100
AcDbEntity
  8
2
  6
Continuous
 62
   174
100
AcDbCircle
 10
1262.0
 20
494.07
 30
0.0
 40
3.3
100
AcDbArc
 50
-42.432476
 51
45.192148
  0
ARC
  5
4EE
100
AcDbEntity
  8
2
  6
Continuous
 62
   174
100
AcDbCircle
 10
1262.0
 20
472.89
 30
0.0
 40
3.3
100
AcDbArc
 50
-42.431806
 51
42.432339
  0
LINE
  5
4EF
100
AcDbEntity
  8
2
  6
CENTER
 62
   174
100
AcDbLine
 10
1265.3
 20
472.89
 30
0.0
 11
1265.3
 21
354.41
 31
0.0
  0
LINE
  5
4F0
100
AcDbEntity
  8
2
  6
Continuous
 62
   174
100
AcDbLine
 10
1262.0
 20
494.07
 30
0.0
 11
1200.0
 21
494.07
 31
0.0
  0
LINE
  5
4F1
100
AcDbEntity
  8
2
  6
Continuous
 62
   174
100
AcDbLine
 10
1259.5
 20
485.48
 30
0.0
 11
1200.0
 21
485.48
 31
0.0
  0
LINE
  5
4F2
100
AcDbEntity
  8
2
  6
Continuous
 62
   174
100
AcDbLine
 10
1259.5
 20
481.48
 30
0.0
 11
1200.0
 21
481.48
 31
0.0
  0
LINE
  5
4F3
100
AcDbEntity
  8
2
  6
Continuous
 62
   174
100
AcDbLine
 10
1262.0
 20
472.89
 30
0.0
 11
1200.0
 21
472.89
 31
0.0
  0
LINE
  5
4F4
100
AcDbEntity
  8
2
  6
Continuous
 62
   174
100
AcDbLine
 10
1259.5
 20
464.3
 30
0.0
 11
1200.0
 21
464.3
 31
0.0
  0
LINE
  5
4F5
100
AcDbEntity
  8
2
  6
Continuous
 62
   174
100
AcDbLine
 10
1259.5
 20
460.3
 30
0.0
 11
1200.0
 21
460.3
 31
0.0
  0
LINE
  5
4F6
100
AcDbEntity
  8
2
  6
CENTER
 62
   174
100
AcDbLine
 10
1264.5
 20
462.3
 30
0.0
 11
1200.0
 21
462.3
 31
0.0
  0
ARC
  5
4F7
100
AcDbEntity
  8
2
  6
Continuous
 62
   174
100
AcDbCircle
 10
1259.5
 20
462.3
 30
0.0
 40
2.0
100
AcDbArc
 50
-90.0
 51
90.0
  0
LINE
  5
4F8
100
AcDbEntity
  8
2
  6
Continuous
 62
   174
100
AcDbLine
 10
1261.630662
 20
457.005
 30
0.0
 11
1258.618558
 21
460.3
 31
0.0
  0
LINE
  5
4F9
100
AcDbEntity
  8
2
  6
Continuous
 62
   174
100
AcDbLine
 10
1258.618558
 20
464.3
 30
0.0
 11
1264.435667
 21
470.66345
 31
0.0
  0
LINE
  5
4FA
100
AcDbEntity
  8
2
  6
CENTER
 62
   174
100
AcDbLine
 10
1264.5
 20
483.48
 30
0.0
 11
1200.0
 21
483.48
 31
0.0
  0
ARC
  5
4FB
100
AcDbEntity
  8
2
  6
Continuous
 62
   174
100
AcDbCircle
 10
1259.5
 20
483.48
 30
0.0
 40
2.0
100
AcDbArc
 50
-90.0
 51
90.0
  0
LINE
  5
4FC
100
AcDbEntity
  8
2
  6
Continuous
 62
   174
100
AcDbLine
 10
1258.618558
 20
485.48
 30
0.0
 11
1264.435667
 21
491.84345
 31
0.0
  0
LINE
  5
4FD
100
AcDbEntity
  8
2
  6
Continuous
 62
   174
100
AcDbLine
 10
1258.618558
 20
481.48
 30
0.0
 11
1264.435667
 21
475.11655
 31
0.0
  0
LINE
  5
4FE
100
AcDbEntity
  8
2
  6
Continuous
 62
   174
100
AcDbLine
 10
1272.5
 20
300.0
 30
0.0
 11
1200.0
 21
300.0
 31
0.0
  0
LINE
  5
4FF
100
AcDbEntity
  8
2
  6
Continuous
 62
   174
100
AcDbLine
 10
1272.5
 20
525.0
 30
0.0
 11
1200.0
 21
525.0
 31
0.0
  0
LINE
  5
500
100
AcDbEntity
  8
2
  6
Continuous
 62
   174
100
AcDbLine
 10
1572.5
 20
303.0
 30
0.0
 11
1500.0
 21
303.0
 31
0.0
  0
LINE
  5
501
100
AcDbEntity
  8
2
  6
Continuous
 62
   174
100
AcDbLine
 10
1572.5
 20
306.6
 30
0.0
 11
1572.5
 21
300.0
 31
0.0
  0
LINE
  5
502
100
AcDbEntity
  8
2
  6
Continuous
 62
   174
100
AcDbLine
 10
1500.0
 20
304.3
 30
0.0
 11
1572.5
 21
304.3
 31
0.0
  0
LINE
  5
503
100
AcDbEntity
  8
2
  6
Continuous
 62
   174
100
AcDbLine
 10
1500.0
 20
306.6
 30
0.0
 11
1600.0
 21
306.6
 31
0.0
  0
LINE
  5
504
100
AcDbEntity
  8
2
  6
Continuous
 62
   174
100
AcDbLine
 10
1600.0
 20
306.6
 30
0.0
 11
1600.0
 21
322.6
 31
0.0
  0
LINE
  5
505
100
AcDbEntity
  8
2
  6
Continuous
 62
   174
100
AcDbLine
 10
1600.0
 20
322.6
 30
0.0
 11
1500.0
 21
322.6
 31
0.0
  0
LINE
  5
506
100
AcDbEntity
  8
2
  6
CENTER
 62
   174
100
AcDbLine
 10
1582.5
 20
332.6
 30
0.0
 11
1582.5
 21
296.6
 31
0.0
  0
LINE
  5
507
100
AcDbEntity
  8
2
  6
CENTER
 62
   174
100
AcDbLine
 10
1582.5
 20
332.6
 30
0.0
 11
1582.5
 21
296.6
 31
0.0
  0
LINE
  5
508
100
AcDbEntity
  8
2
  6
HIDDEN
 62
   174
100
AcDbLine
 10
1573.0
 20
322.6
 30
0.0
 11
1573.0
 21
306.6
 31
0.0
  0
LINE
  5
509
100
AcDbEntity
  8
2
  6
HIDDEN
 62
   174
100
AcDbLine
 10
1592.0
 20
322.6
 30
0.0
 11
1592.0
 21
306.6
 31
0.0
  0
LINE
  5
50A
100
AcDbEntity
  8
2
  6
CENTER
 62
   174
100
AcDbLine
 10
1567.0
 20
354.41
 30
0.0
 11
1557.0
 21
354.41
 31
0.0
  0
LINE
  5
50B
100
AcDbEntity
  8
2
  6
Continuous
 62
   174
100
AcDbLine
 10
1556.885451
 20
323.523905
 30
0.0
 11
1564.321548
 21
330.884704
 31
0.0
  0
ARC
  5
50C
100
AcDbEntity
  8
2
  6
Continuous
 62
   174
100
AcDbCircle
 10
1557.8
 20
322.6
 30
0.0
 40
1.3
100
AcDbArc
 50
134.707486
 51
180.0
  0
ARC
  5
50D
100
AcDbEntity
  8
2
  6
Continuous
 62
   174
100
AcDbCircle
 10
1562.0
 20
333.23
 30
0.0
 40
3.3
100
AcDbArc
 50
-45.192148
 51
42.432476
  0
ARC
  5
50E
100
AcDbEntity
  8
2
  6
Continuous
 62
   174
100
AcDbCircle
 10
1562.0
 20
354.41
 30
0.0
 40
3.3
100
AcDbArc
 50
-42.432339
 51
42.431806
  0
LINE
  5
50F
100
AcDbEntity
  8
2
  6
Continuous
 62
   174
100
AcDbLine
 10
1559.5
 20
367.0
 30
0.0
 11
1500.0
 21
367.0
 31
0.0
  0
LINE
  5
510
100
AcDbEntity
  8
2
  6
Continuous
 62
   174
100
AcDbLine
 10
1559.5
 20
363.0
 30
0.0
 11
1500.0
 21
363.0
 31
0.0
  0
LINE
  5
511
100
AcDbEntity
  8
2
  6
Continuous
 62
   174
100
AcDbLine
 10
1562.0
 20
354.41
 30
0.0
 11
1500.0
 21
354.41
 31
0.0
  0
LINE
  5
512
100
AcDbEntity
  8
2
  6
Continuous
 62
   174
100
AcDbLine
 10
1559.5
 20
345.82
 30
0.0
 11
1500.0
 21
345.82
 31
0.0
  0
LINE
  5
513
100
AcDbEntity
  8
2
  6
Continuous
 62
   174
100
AcDbLine
 10
1559.5
 20
341.82
 30
0.0
 11
1500.0
 21
341.82
 31
0.0
  0
LINE
  5
514
100
AcDbEntity
  8
2
  6
Continuous
 62
   174
100
AcDbLine
 10
1562.0
 20
333.23
 30
0.0
 11
1500.0
 21
333.23
 31
0.0
  0
ARC
  5
515
100
AcDbEntity
  8
2
  6
Continuous
 62
   174
100
AcDbCircle
 10
1559.5
 20
343.82
 30
0.0
 40
2.0
100
AcDbArc
 50
-90.0
 51
90.0
  0
LINE
  5
516
100
AcDbEntity
  8
2
  6
Continuous
 62
   174
100
AcDbLine
 10
1558.618558
 20
345.82
 30
0.0
 11
1564.435667
 21
352.18345
 31
0.0
  0
LINE
  5
517
100
AcDbEntity
  8
2
  6
Continuous
 62
   174
100
AcDbLine
 10
1558.618558
 20
341.82
 30
0.0
 11
1564.435667
 21
335.45655
 31
0.0
  0
ARC
  5
518
100
AcDbEntity
  8
2
  6
Continuous
 62
   174
100
AcDbCircle
 10
1559.5
 20
365.0
 30
0.0
 40
2.0
100
AcDbArc
 50
-90.0
 51
90.0
  0
LINE
  5
519
100
AcDbEntity
  8
2
  6
Continuous
 62
   174
100
AcDbLine
 10
1561.630662
 20
370.295
 30
0.0
 11
1558.618558
 21
367.0
 31
0.0
  0
LINE
  5
51A
100
AcDbEntity
  8
2
  6
Continuous
 62
   174
100
AcDbLine
 10
1558.618558
 20
363.0
 30
0.0
 11
1564.435667
 21
356.63655
 31
0.0
  0
LINE
  5
51B
100
AcDbEntity
  8
2
  6
CENTER
 62
   174
100
AcDbLine
 10
1564.5
 20
365.0
 30
0.0
 11
1500.0
 21
365.0
 31
0.0
  0
LINE
  5
51C
100
AcDbEntity
  8
2
  6
CENTER
 62
   174
100
AcDbLine
 10
1564.5
 20
343.82
 30
0.0
 11
1500.0
 21
343.82
 31
0.0
  0
LINE
  5
51D
100
AcDbEntity
  8
2
  6
Continuous
 62
   174
100
AcDbLine
 10
1500.0
 20
530.7
 30
0.0
 11
1600.0
 21
530.7
 31
0.0
  0
LINE
  5
51E
100
AcDbEntity
  8
2
  6
Continuous
 62
   174
100
AcDbLine
 10
1600.0
 20
530.7
 30
0.0
 11
1600.0
 21
514.7
 31
0.0
  0
LINE
  5
51F
100
AcDbEntity
  8
2
  6
Continuous
 62
   174
100
AcDbLine
 10
1600.0
 20
514.7
 30
0.0
 11
1500.0
 21
514.7
 31
0.0
  0
LINE
  5
520
100
AcDbEntity
  8
2
  6
CENTER
 62
   174
100
AcDbLine
 10
1582.5
 20
504.7
 30
0.0
 11
1582.5
 21
540.7
 31
0.0
  0
LINE
  5
521
100
AcDbEntity
  8
2
  6
HIDDEN
 62
   174
100
AcDbLine
 10
1573.0
 20
514.7
 30
0.0
 11
1573.0
 21
530.7
 31
0.0
  0
LINE
  5
522
100
AcDbEntity
  8
2
  6
HIDDEN
 62
   174
100
AcDbLine
 10
1592.0
 20
514.7
 30
0.0
 11
1592.0
 21
530.7
 31
0.0
  0
LINE
  5
523
100
AcDbEntity
  8
2
  6
Continuous
 62
   174
100
AcDbLine
 10
1572.5
 20
530.7
 30
0.0
 11
1572.5
 21
535.0
 31
0.0
  0
LINE
  5
524
100
AcDbEntity
  8
2
  6
Continuous
 62
   174
100
AcDbLine
 10
1572.5
 20
532.0
 30
0.0
 11
1500.0
 21
532.0
 31
0.0
  0
LINE
  5
525
100
AcDbEntity
  8
2
  6
CENTER
 62
   174
100
AcDbLine
 10
1571.0
 20
514.7
 30
0.0
 11
1571.0
 21
322.6
 31
0.0
  0
LINE
  5
526
100
AcDbEntity
  8
2
  6
Continuous
 62
   174
100
AcDbLine
 10
1556.885451
 20
513.776095
 30
0.0
 11
1564.321548
 21
506.415296
 31
0.0
  0
ARC
  5
527
100
AcDbEntity
  8
2
  6
Continuous
 62
   174
100
AcDbCircle
 10
1557.8
 20
514.7
 30
0.0
 40
1.3
100
AcDbArc
 50
180.0
 51
-134.707486
  0
ARC
  5
528
100
AcDbEntity
  8
2
  6
Continuous
 62
   174
100
AcDbCircle
 10
1562.0
 20
504.07
 30
0.0
 40
3.3
100
AcDbArc
 50
-42.432476
 51
45.192148
  0
ARC
  5
529
100
AcDbEntity
  8
2
  6
Continuous
 62
   174
100
AcDbCircle
 10
1562.0
 20
482.89
 30
0.0
 40
3.3
100
AcDbArc
 50
-42.431806
 51
42.432339
  0
LINE
  5
52A
100
AcDbEntity
  8
2
  6
CENTER
 62
   174
100
AcDbLine
 10
1565.3
 20
482.89
 30
0.0
 11
1565.3
 21
354.41
 31
0.0
  0
LINE
  5
52B
100
AcDbEntity
  8
2
  6
Continuous
 62
   174
100
AcDbLine
 10
1562.0
 20
504.07
 30
0.0
 11
1500.0
 21
504.07
 31
0.0
  0
LINE
  5
52C
100
AcDbEntity
  8
2
  6
Continuous
 62
   174
100
AcDbLine
 10
1559.5
 20
495.48
 30
0.0
 11
1500.0
 21
495.48
 31
0.0
  0
LINE
  5
52D
100
AcDbEntity
  8
2
  6
Continuous
 62
   174
100
AcDbLine
 10
1559.5
 20
491.48
 30
0.0
 11
1500.0
 21
491.48
 31
0.0
  0
LINE
  5
52E
100
AcDbEntity
  8
2
  6
Continuous
 62
   174
100
AcDbLine
 10
1562.0
 20
482.89
 30
0.0
 11
1500.0
 21
482.89
 31
0.0
  0
LINE
  5
52F
100
AcDbEntity
  8
2
  6
Continuous
 62
   174
100
AcDbLine
 10
1559.5
 20
474.3
 30
0.0
 11
1500.0
 21
474.3
 31
0.0
  0
LINE
  5
530
100
AcDbEntity
  8
2
  6
Continuous
 62
   174
100
AcDbLine
 10
1559.5
 20
470.3
 30
0.0
 11
1500.0
 21
470.3
 31
0.0
  0
LINE
  5
531
100
AcDbEntity
  8
2
  6
CENTER
 62
   174
100
AcDbLine
 10
1564.5
 20
472.3
 30
0.0
 11
1500.0
 21
472.3
 31
0.0
  0
ARC
  5
532
100
AcDbEntity
  8
2
  6
Continuous
 62
   174
100
AcDbCircle
 10
1559.5
 20
472.3
 30
0.0
 40
2.0
100
AcDbArc
 50
-90.0
 51
90.0
  0
LINE
  5
533
100
AcDbEntity
  8
2
  6
Continuous
 62
   174
100
AcDbLine
 10
1561.630662
 20
467.005
 30
0.0
 11
1558.618558
 21
470.3
 31
0.0
  0
LINE
  5
534
100
AcDbEntity
  8
2
  6
Continuous
 62
   174
100
AcDbLine
 10
1558.618558
 20
474.3
 30
0.0
 11
1564.435667
 21
480.66345
 31
0.0
  0
LINE
  5
535
100
AcDbEntity
  8
2
  6
CENTER
 62
   174
100
AcDbLine
 10
1564.5
 20
493.48
 30
0.0
 11
1500.0
 21
493.48
 31
0.0
  0
ARC
  5
536
100
AcDbEntity
  8
2
  6
Continuous
 62
   174
100
AcDbCircle
 10
1559.5
 20
493.48
 30
0.0
 40
2.0
100
AcDbArc
 50
-90.0
 51
90.0
  0
LINE
  5
537
100
AcDbEntity
  8
2
  6
Continuous
 62
   174
100
AcDbLine
 10
1558.618558
 20
495.48
 30
0.0
 11
1564.435667
 21
501.84345
 31
0.0
  0
LINE
  5
538
100
AcDbEntity
  8
2
  6
Continuous
 62
   174
100
AcDbLine
 10
1558.618558
 20
491.48
 30
0.0
 11
1564.435667
 21
485.11655
 31
0.0
  0
LINE
  5
539
100
AcDbEntity
  8
2
  6
Continuous
 62
   174
100
AcDbLine
 10
1572.5
 20
535.0
 30
0.0
 11
1500.0
 21
535.0
 31
0.0
  0
LINE
  5
53A
100
AcDbEntity
  8
2
  6
Continuous
 62
   174
100
AcDbLine
 10
1572.5
 20
300.0
 30
0.0
 11
1500.0
 21
300.0
 31
0.0
  0
LINE
  5
53B
100
AcDbEntity
  8
2
  6
Continuous
 62
   174
100
AcDbLine
 10
1872.5
 20
303.0
 30
0.0
 11
1800.0
 21
303.0
 31
0.0
  0
LINE
  5
53C
100
AcDbEntity
  8
2
  6
Continuous
 62
   174
100
AcDbLine
 10
1872.5
 20
306.6
 30
0.0
 11
1872.5
 21
300.0
 31
0.0
  0
LINE
  5
53D
100
AcDbEntity
  8
2
  6
Continuous
 62
   174
100
AcDbLine
 10
1800.0
 20
304.3
 30
0.0
 11
1872.5
 21
304.3
 31
0.0
  0
LINE
  5
53E
100
AcDbEntity
  8
2
  6
Continuous
 62
   174
100
AcDbLine
 10
1800.0
 20
306.6
 30
0.0
 11
1900.0
 21
306.6
 31
0.0
  0
LINE
  5
53F
100
AcDbEntity
  8
2
  6
Continuous
 62
   174
100
AcDbLine
 10
1900.0
 20
306.6
 30
0.0
 11
1900.0
 21
322.6
 31
0.0
  0
LINE
  5
540
100
AcDbEntity
  8
2
  6
Continuous
 62
   174
100
AcDbLine
 10
1900.0
 20
322.6
 30
0.0
 11
1800.0
 21
322.6
 31
0.0
  0
LINE
  5
541
100
AcDbEntity
  8
2
  6
CENTER
 62
   174
100
AcDbLine
 10
1882.5
 20
332.6
 30
0.0
 11
1882.5
 21
296.6
 31
0.0
  0
LINE
  5
542
100
AcDbEntity
  8
2
  6
CENTER
 62
   174
100
AcDbLine
 10
1882.5
 20
332.6
 30
0.0
 11
1882.5
 21
296.6
 31
0.0
  0
LINE
  5
543
100
AcDbEntity
  8
2
  6
HIDDEN
 62
   174
100
AcDbLine
 10
1873.0
 20
322.6
 30
0.0
 11
1873.0
 21
306.6
 31
0.0
  0
LINE
  5
544
100
AcDbEntity
  8
2
  6
HIDDEN
 62
   174
100
AcDbLine
 10
1892.0
 20
322.6
 30
0.0
 11
1892.0
 21
306.6
 31
0.0
  0
LINE
  5
545
100
AcDbEntity
  8
2
  6
CENTER
 62
   174
100
AcDbLine
 10
1867.0
 20
354.41
 30
0.0
 11
1857.0
 21
354.41
 31
0.0
  0
LINE
  5
546
100
AcDbEntity
  8
2
  6
Continuous
 62
   174
100
AcDbLine
 10
1856.885451
 20
323.523905
 30
0.0
 11
1864.321548
 21
330.884704
 31
0.0
  0
ARC
  5
547
100
AcDbEntity
  8
2
  6
Continuous
 62
   174
100
AcDbCircle
 10
1857.8
 20
322.6
 30
0.0
 40
1.3
100
AcDbArc
 50
134.707486
 51
180.0
  0
ARC
  5
548
100
AcDbEntity
  8
2
  6
Continuous
 62
   174
100
AcDbCircle
 10
1862.0
 20
333.23
 30
0.0
 40
3.3
100
AcDbArc
 50
-45.192148
 51
42.432476
  0
ARC
  5
549
100
AcDbEntity
  8
2
  6
Continuous
 62
   174
100
AcDbCircle
 10
1862.0
 20
354.41
 30
0.0
 40
3.3
100
AcDbArc
 50
-42.432339
 51
42.431806
  0
LINE
  5
54A
100
AcDbEntity
  8
2
  6
Continuous
 62
   174
100
AcDbLine
 10
1859.5
 20
367.0
 30
0.0
 11
1800.0
 21
367.0
 31
0.0
  0
LINE
  5
54B
100
AcDbEntity
  8
2
  6
Continuous
 62
   174
100
AcDbLine
 10
1859.5
 20
363.0
 30
0.0
 11
1800.0
 21
363.0
 31
0.0
  0
LINE
  5
54C
100
AcDbEntity
  8
2
  6
Continuous
 62
   174
100
AcDbLine
 10
1862.0
 20
354.41
 30
0.0
 11
1800.0
 21
354.41
 31
0.0
  0
LINE
  5
54D
100
AcDbEntity
  8
2
  6
Continuous
 62
   174
100
AcDbLine
 10
1859.5
 20
345.82
 30
0.0
 11
1800.0
 21
345.82
 31
0.0
  0
LINE
  5
54E
100
AcDbEntity
  8
2
  6
Continuous
 62
   174
100
AcDbLine
 10
1859.5
 20
341.82
 30
0.0
 11
1800.0
 21
341.82
 31
0.0
  0
LINE
  5
54F
100
AcDbEntity
  8
2
  6
Continuous
 62
   174
100
AcDbLine
 10
1862.0
 20
333.23
 30
0.0
 11
1800.0
 21
333.23
 31
0.0
  0
ARC
  5
550
100
AcDbEntity
  8
2
  6
Continuous
 62
   174
100
AcDbCircle
 10
1859.5
 20
343.82
 30
0.0
 40
2.0
100
AcDbArc
 50
-90.0
 51
90.0
  0
LINE
  5
551
100
AcDbEntity
  8
2
  6
Continuous
 62
   174
100
AcDbLine
 10
1858.618558
 20
345.82
 30
0.0
 11
1864.435667
 21
352.18345
 31
0.0
  0
LINE
  5
552
100
AcDbEntity
  8
2
  6
Continuous
 62
   174
100
AcDbLine
 10
1858.618558
 20
341.82
 30
0.0
 11
1864.435667
 21
335.45655
 31
0.0
  0
ARC
  5
553
100
AcDbEntity
  8
2
  6
Continuous
 62
   174
100
AcDbCircle
 10
1859.5
 20
365.0
 30
0.0
 40
2.0
100
AcDbArc
 50
-90.0
 51
90.0
  0
LINE
  5
554
100
AcDbEntity
  8
2
  6
Continuous
 62
   174
100
AcDbLine
 10
1861.630662
 20
370.295
 30
0.0
 11
1858.618558
 21
367.0
 31
0.0
  0
LINE
  5
555
100
AcDbEntity
  8
2
  6
Continuous
 62
   174
100
AcDbLine
 10
1858.618558
 20
363.0
 30
0.0
 11
1864.435667
 21
356.63655
 31
0.0
  0
LINE
  5
556
100
AcDbEntity
  8
2
  6
CENTER
 62
   174
100
AcDbLine
 10
1864.5
 20
365.0
 30
0.0
 11
1800.0
 21
365.0
 31
0.0
  0
LINE
  5
557
100
AcDbEntity
  8
2
  6
CENTER
 62
   174
100
AcDbLine
 10
1864.5
 20
343.82
 30
0.0
 11
1800.0
 21
343.82
 31
0.0
  0
LINE
  5
558
100
AcDbEntity
  8
2
  6
Continuous
 62
   174
100
AcDbLine
 10
1800.0
 20
550.7
 30
0.0
 11
1900.0
 21
550.7
 31
0.0
  0
LINE
  5
559
100
AcDbEntity
  8
2
  6
Continuous
 62
   174
100
AcDbLine
 10
1900.0
 20
550.7
 30
0.0
 11
1900.0
 21
534.7
 31
0.0
  0
LINE
  5
55A
100
AcDbEntity
  8
2
  6
Continuous
 62
   174
100
AcDbLine
 10
1900.0
 20
534.7
 30
0.0
 11
1800.0
 21
534.7
 31
0.0
  0
LINE
  5
55B
100
AcDbEntity
  8
2
  6
CENTER
 62
   174
100
AcDbLine
 10
1882.5
 20
524.7
 30
0.0
 11
1882.5
 21
560.7
 31
0.0
  0
LINE
  5
55C
100
AcDbEntity
  8
2
  6
HIDDEN
 62
   174
100
AcDbLine
 10
1873.0
 20
534.7
 30
0.0
 11
1873.0
 21
550.7
 31
0.0
  0
LINE
  5
55D
100
AcDbEntity
  8
2
  6
HIDDEN
 62
   174
100
AcDbLine
 10
1892.0
 20
534.7
 30
0.0
 11
1892.0
 21
550.7
 31
0.0
  0
LINE
  5
55E
100
AcDbEntity
  8
2
  6
Continuous
 62
   174
100
AcDbLine
 10
1872.5
 20
550.7
 30
0.0
 11
1872.5
 21
555.0
 31
0.0
  0
LINE
  5
55F
100
AcDbEntity
  8
2
  6
Continuous
 62
   174
100
AcDbLine
 10
1872.5
 20
552.0
 30
0.0
 11
1800.0
 21
552.0
 31
0.0
  0
LINE
  5
560
100
AcDbEntity
  8
2
  6
CENTER
 62
   174
100
AcDbLine
 10
1871.0
 20
534.7
 30
0.0
 11
1871.0
 21
322.6
 31
0.0
  0
LINE
  5
561
100
AcDbEntity
  8
2
  6
Continuous
 62
   174
100
AcDbLine
 10
1856.885451
 20
533.776095
 30
0.0
 11
1864.321548
 21
526.415296
 31
0.0
  0
ARC
  5
562
100
AcDbEntity
  8
2
  6
Continuous
 62
   174
100
AcDbCircle
 10
1857.8
 20
534.7
 30
0.0
 40
1.3
100
AcDbArc
 50
180.0
 51
-134.707486
  0
ARC
  5
563
100
AcDbEntity
  8
2
  6
Continuous
 62
   174
100
AcDbCircle
 10
1862.0
 20
524.07
 30
0.0
 40
3.3
100
AcDbArc
 50
-42.432476
 51
45.192148
  0
ARC
  5
564
100
AcDbEntity
  8
2
  6
Continuous
 62
   174
100
AcDbCircle
 10
1862.0
 20
502.89
 30
0.0
 40
3.3
100
AcDbArc
 50
-42.431806
 51
42.432339
  0
LINE
  5
565
100
AcDbEntity
  8
2
  6
CENTER
 62
   174
100
AcDbLine
 10
1865.3
 20
502.89
 30
0.0
 11
1865.3
 21
354.41
 31
0.0
  0
LINE
  5
566
100
AcDbEntity
  8
2
  6
Continuous
 62
   174
100
AcDbLine
 10
1862.0
 20
524.07
 30
0.0
 11
1800.0
 21
524.07
 31
0.0
  0
LINE
  5
567
100
AcDbEntity
  8
2
  6
Continuous
 62
   174
100
AcDbLine
 10
1859.5
 20
515.48
 30
0.0
 11
1800.0
 21
515.48
 31
0.0
  0
LINE
  5
568
100
AcDbEntity
  8
2
  6
Continuous
 62
   174
100
AcDbLine
 10
1859.5
 20
511.48
 30
0.0
 11
1800.0
 21
511.48
 31
0.0
  0
LINE
  5
569
100
AcDbEntity
  8
2
  6
Continuous
 62
   174
100
AcDbLine
 10
1862.0
 20
502.89
 30
0.0
 11
1800.0
 21
502.89
 31
0.0
  0
LINE
  5
56A
100
AcDbEntity
  8
2
  6
Continuous
 62
   174
100
AcDbLine
 10
1859.5
 20
494.3
 30
0.0
 11
1800.0
 21
494.3
 31
0.0
  0
LINE
  5
56B
100
AcDbEntity
  8
2
  6
Continuous
 62
   174
100
AcDbLine
 10
1859.5
 20
490.3
 30
0.0
 11
1800.0
 21
490.3
 31
0.0
  0
LINE
  5
56C
100
AcDbEntity
  8
2
  6
CENTER
 62
   174
100
AcDbLine
 10
1864.5
 20
492.3
 30
0.0
 11
1800.0
 21
492.3
 31
0.0
  0
ARC
  5
56D
100
AcDbEntity
  8
2
  6
Continuous
 62
   174
100
AcDbCircle
 10
1859.5
 20
492.3
 30
0.0
 40
2.0
100
AcDbArc
 50
-90.0
 51
90.0
  0
LINE
  5
56E
100
AcDbEntity
  8
2
  6
Continuous
 62
   174
100
AcDbLine
 10
1861.630662
 20
487.005
 30
0.0
 11
1858.618558
 21
490.3
 31
0.0
  0
LINE
  5
56F
100
AcDbEntity
  8
2
  6
Continuous
 62
   174
100
AcDbLine
 10
1858.618558
 20
494.3
 30
0.0
 11
1864.435667
 21
500.66345
 31
0.0
  0
LINE
  5
570
100
AcDbEntity
  8
2
  6
CENTER
 62
   174
100
AcDbLine
 10
1864.5
 20
513.48
 30
0.0
 11
1800.0
 21
513.48
 31
0.0
  0
ARC
  5
571
100
AcDbEntity
  8
2
  6
Continuous
 62
   174
100
AcDbCircle
 10
1859.5
 20
513.48
 30
0.0
 40
2.0
100
AcDbArc
 50
-90.0
 51
90.0
  0
LINE
  5
572
100
AcDbEntity
  8
2
  6
Continuous
 62
   174
100
AcDbLine
 10
1858.618558
 20
515.48
 30
0.0
 11
1864.435667
 21
521.84345
 31
0.0
  0
LINE
  5
573
100
AcDbEntity
  8
2
  6
Continuous
 62
   174
100
AcDbLine
 10
1858.618558
 20
511.48
 30
0.0
 11
1864.435667
 21
505.11655
 31
0.0
  0
LINE
  5
574
100
AcDbEntity
  8
2
  6
Continuous
 62
   174
100
AcDbLine
 10
1872.5
 20
300.0
 30
0.0
 11
1800.0
 21
300.0
 31
0.0
  0
LINE
  5
575
100
AcDbEntity
  8
2
  6
Continuous
 62
   174
100
AcDbLine
 10
1872.5
 20
555.0
 30
0.0
 11
1800.0
 21
555.0
 31
0.0
  0
LINE
  5
576
100
AcDbEntity
  8
2
  6
Continuous
 62
   174
100
AcDbLine
 10
2172.5
 20
303.0
 30
0.0
 11
2100.0
 21
303.0
 31
0.0
  0
LINE
  5
577
100
AcDbEntity
  8
2
  6
Continuous
 62
   174
100
AcDbLine
 10
2172.5
 20
306.6
 30
0.0
 11
2172.5
 21
300.0
 31
0.0
  0
LINE
  5
578
100
AcDbEntity
  8
2
  6
Continuous
 62
   174
100
AcDbLine
 10
2100.0
 20
304.3
 30
0.0
 11
2172.5
 21
304.3
 31
0.0
  0
LINE
  5
579
100
AcDbEntity
  8
2
  6
Continuous
 62
   174
100
AcDbLine
 10
2100.0
 20
306.6
 30
0.0
 11
2200.0
 21
306.6
 31
0.0
  0
LINE
  5
57A
100
AcDbEntity
  8
2
  6
Continuous
 62
   174
100
AcDbLine
 10
2200.0
 20
306.6
 30
0.0
 11
2200.0
 21
322.6
 31
0.0
  0
LINE
  5
57B
100
AcDbEntity
  8
2
  6
Continuous
 62
   174
100
AcDbLine
 10
2200.0
 20
322.6
 30
0.0
 11
2100.0
 21
322.6
 31
0.0
  0
LINE
  5
57C
100
AcDbEntity
  8
2
  6
CENTER
 62
   174
100
AcDbLine
 10
2182.5
 20
332.6
 30
0.0
 11
2182.5
 21
296.6
 31
0.0
  0
LINE
  5
57D
100
AcDbEntity
  8
2
  6
CENTER
 62
   174
100
AcDbLine
 10
2182.5
 20
332.6
 30
0.0
 11
2182.5
 21
296.6
 31
0.0
  0
LINE
  5
57E
100
AcDbEntity
  8
2
  6
HIDDEN
 62
   174
100
AcDbLine
 10
2173.0
 20
322.6
 30
0.0
 11
2173.0
 21
306.6
 31
0.0
  0
LINE
  5
57F
100
AcDbEntity
  8
2
  6
HIDDEN
 62
   174
100
AcDbLine
 10
2192.0
 20
322.6
 30
0.0
 11
2192.0
 21
306.6
 31
0.0
  0
LINE
  5
580
100
AcDbEntity
  8
2
  6
CENTER
 62
   174
100
AcDbLine
 10
2167.0
 20
354.41
 30
0.0
 11
2157.0
 21
354.41
 31
0.0
  0
LINE
  5
581
100
AcDbEntity
  8
2
  6
Continuous
 62
   174
100
AcDbLine
 10
2156.885451
 20
323.523905
 30
0.0
 11
2164.321548
 21
330.884704
 31
0.0
  0
ARC
  5
582
100
AcDbEntity
  8
2
  6
Continuous
 62
   174
100
AcDbCircle
 10
2157.8
 20
322.6
 30
0.0
 40
1.3
100
AcDbArc
 50
134.707486
 51
180.0
  0
ARC
  5
583
100
AcDbEntity
  8
2
  6
Continuous
 62
   174
100
AcDbCircle
 10
2162.0
 20
333.23
 30
0.0
 40
3.3
100
AcDbArc
 50
-45.192148
 51
42.432476
  0
ARC
  5
584
100
AcDbEntity
  8
2
  6
Continuous
 62
   174
100
AcDbCircle
 10
2162.0
 20
354.41
 30
0.0
 40
3.3
100
AcDbArc
 50
-42.432339
 51
42.431806
  0
LINE
  5
585
100
AcDbEntity
  8
2
  6
Continuous
 62
   174
100
AcDbLine
 10
2159.5
 20
367.0
 30
0.0
 11
2100.0
 21
367.0
 31
0.0
  0
LINE
  5
586
100
AcDbEntity
  8
2
  6
Continuous
 62
   174
100
AcDbLine
 10
2159.5
 20
363.0
 30
0.0
 11
2100.0
 21
363.0
 31
0.0
  0
LINE
  5
587
100
AcDbEntity
  8
2
  6
Continuous
 62
   174
100
AcDbLine
 10
2162.0
 20
354.41
 30
0.0
 11
2100.0
 21
354.41
 31
0.0
  0
LINE
  5
588
100
AcDbEntity
  8
2
  6
Continuous
 62
   174
100
AcDbLine
 10
2159.5
 20
345.82
 30
0.0
 11
2100.0
 21
345.82
 31
0.0
  0
LINE
  5
589
100
AcDbEntity
  8
2
  6
Continuous
 62
   174
100
AcDbLine
 10
2159.5
 20
341.82
 30
0.0
 11
2100.0
 21
341.82
 31
0.0
  0
LINE
  5
58A
100
AcDbEntity
  8
2
  6
Continuous
 62
   174
100
AcDbLine
 10
2162.0
 20
333.23
 30
0.0
 11
2100.0
 21
333.23
 31
0.0
  0
ARC
  5
58B
100
AcDbEntity
  8
2
  6
Continuous
 62
   174
100
AcDbCircle
 10
2159.5
 20
343.82
 30
0.0
 40
2.0
100
AcDbArc
 50
-90.0
 51
90.0
  0
LINE
  5
58C
100
AcDbEntity
  8
2
  6
Continuous
 62
   174
100
AcDbLine
 10
2158.618558
 20
345.82
 30
0.0
 11
2164.435667
 21
352.18345
 31
0.0
  0
LINE
  5
58D
100
AcDbEntity
  8
2
  6
Continuous
 62
   174
100
AcDbLine
 10
2158.618558
 20
341.82
 30
0.0
 11
2164.435667
 21
335.45655
 31
0.0
  0
ARC
  5
58E
100
AcDbEntity
  8
2
  6
Continuous
 62
   174
100
AcDbCircle
 10
2159.5
 20
365.0
 30
0.0
 40
2.0
100
AcDbArc
 50
-90.0
 51
90.0
  0
LINE
  5
58F
100
AcDbEntity
  8
2
  6
Continuous
 62
   174
100
AcDbLine
 10
2161.630662
 20
370.295
 30
0.0
 11
2158.618558
 21
367.0
 31
0.0
  0
LINE
  5
590
100
AcDbEntity
  8
2
  6
Continuous
 62
   174
100
AcDbLine
 10
2158.618558
 20
363.0
 30
0.0
 11
2164.435667
 21
356.63655
 31
0.0
  0
LINE
  5
591
100
AcDbEntity
  8
2
  6
CENTER
 62
   174
100
AcDbLine
 10
2164.5
 20
365.0
 30
0.0
 11
2100.0
 21
365.0
 31
0.0
  0
LINE
  5
592
100
AcDbEntity
  8
2
  6
CENTER
 62
   174
100
AcDbLine
 10
2164.5
 20
343.82
 30
0.0
 11
2100.0
 21
343.82
 31
0.0
  0
LINE
  5
593
100
AcDbEntity
  8
2
  6
Continuous
 62
   174
100
AcDbLine
 10
2100.0
 20
565.7
 30
0.0
 11
2200.0
 21
565.7
 31
0.0
  0
LINE
  5
594
100
AcDbEntity
  8
2
  6
Continuous
 62
   174
100
AcDbLine
 10
2200.0
 20
565.7
 30
0.0
 11
2200.0
 21
549.7
 31
0.0
  0
LINE
  5
595
100
AcDbEntity
  8
2
  6
Continuous
 62
   174
100
AcDbLine
 10
2200.0
 20
549.7
 30
0.0
 11
2100.0
 21
549.7
 31
0.0
  0
LINE
  5
596
100
AcDbEntity
  8
2
  6
CENTER
 62
   174
100
AcDbLine
 10
2182.5
 20
539.7
 30
0.0
 11
2182.5
 21
575.7
 31
0.0
  0
LINE
  5
597
100
AcDbEntity
  8
2
  6
HIDDEN
 62
   174
100
AcDbLine
 10
2173.0
 20
549.7
 30
0.0
 11
2173.0
 21
565.7
 31
0.0
  0
LINE
  5
598
100
AcDbEntity
  8
2
  6
HIDDEN
 62
   174
100
AcDbLine
 10
2192.0
 20
549.7
 30
0.0
 11
2192.0
 21
565.7
 31
0.0
  0
LINE
  5
599
100
AcDbEntity
  8
2
  6
Continuous
 62
   174
100
AcDbLine
 10
2172.5
 20
565.7
 30
0.0
 11
2172.5
 21
570.0
 31
0.0
  0
LINE
  5
59A
100
AcDbEntity
  8
2
  6
Continuous
 62
   174
100
AcDbLine
 10
2172.5
 20
567.0
 30
0.0
 11
2100.0
 21
567.0
 31
0.0
  0
LINE
  5
59B
100
AcDbEntity
  8
2
  6
CENTER
 62
   174
100
AcDbLine
 10
2171.0
 20
549.7
 30
0.0
 11
2171.0
 21
322.6
 31
0.0
  0
LINE
  5
59C
100
AcDbEntity
  8
2
  6
Continuous
 62
   174
100
AcDbLine
 10
2156.885451
 20
548.776095
 30
0.0
 11
2164.321548
 21
541.415296
 31
0.0
  0
ARC
  5
59D
100
AcDbEntity
  8
2
  6
Continuous
 62
   174
100
AcDbCircle
 10
2157.8
 20
549.7
 30
0.0
 40
1.3
100
AcDbArc
 50
180.0
 51
-134.707486
  0
ARC
  5
59E
100
AcDbEntity
  8
2
  6
Continuous
 62
   174
100
AcDbCircle
 10
2162.0
 20
539.07
 30
0.0
 40
3.3
100
AcDbArc
 50
-42.432476
 51
45.192148
  0
ARC
  5
59F
100
AcDbEntity
  8
2
  6
Continuous
 62
   174
100
AcDbCircle
 10
2162.0
 20
517.89
 30
0.0
 40
3.3
100
AcDbArc
 50
-42.431806
 51
42.432339
  0
LINE
  5
5A0
100
AcDbEntity
  8
2
  6
CENTER
 62
   174
100
AcDbLine
 10
2165.3
 20
517.89
 30
0.0
 11
2165.3
 21
354.41
 31
0.0
  0
LINE
  5
5A1
100
AcDbEntity
  8
2
  6
Continuous
 62
   174
100
AcDbLine
 10
2162.0
 20
539.07
 30
0.0
 11
2100.0
 21
539.07
 31
0.0
  0
LINE
  5
5A2
100
AcDbEntity
  8
2
  6
Continuous
 62
   174
100
AcDbLine
 10
2159.5
 20
530.48
 30
0.0
 11
2100.0
 21
530.48
 31
0.0
  0
LINE
  5
5A3
100
AcDbEntity
  8
2
  6
Continuous
 62
   174
100
AcDbLine
 10
2159.5
 20
526.48
 30
0.0
 11
2100.0
 21
526.48
 31
0.0
  0
LINE
  5
5A4
100
AcDbEntity
  8
2
  6
Continuous
 62
   174
100
AcDbLine
 10
2162.0
 20
517.89
 30
0.0
 11
2100.0
 21
517.89
 31
0.0
  0
LINE
  5
5A5
100
AcDbEntity
  8
2
  6
Continuous
 62
   174
100
AcDbLine
 10
2159.5
 20
509.3
 30
0.0
 11
2100.0
 21
509.3
 31
0.0
  0
LINE
  5
5A6
100
AcDbEntity
  8
2
  6
Continuous
 62
   174
100
AcDbLine
 10
2159.5
 20
505.3
 30
0.0
 11
2100.0
 21
505.3
 31
0.0
  0
LINE
  5
5A7
100
AcDbEntity
  8
2
  6
CENTER
 62
   174
100
AcDbLine
 10
2164.5
 20
507.3
 30
0.0
 11
2100.0
 21
507.3
 31
0.0
  0
ARC
  5
5A8
100
AcDbEntity
  8
2
  6
Continuous
 62
   174
100
AcDbCircle
 10
2159.5
 20
507.3
 30
0.0
 40
2.0
100
AcDbArc
 50
-90.0
 51
90.0
  0
LINE
  5
5A9
100
AcDbEntity
  8
2
  6
Continuous
 62
   174
100
AcDbLine
 10
2161.630662
 20
502.005
 30
0.0
 11
2158.618558
 21
505.3
 31
0.0
  0
LINE
  5
5AA
100
AcDbEntity
  8
2
  6
Continuous
 62
   174
100
AcDbLine
 10
2158.618558
 20
509.3
 30
0.0
 11
2164.435667
 21
515.66345
 31
0.0
  0
LINE
  5
5AB
100
AcDbEntity
  8
2
  6
CENTER
 62
   174
100
AcDbLine
 10
2164.5
 20
528.48
 30
0.0
 11
2100.0
 21
528.48
 31
0.0
  0
ARC
  5
5AC
100
AcDbEntity
  8
2
  6
Continuous
 62
   174
100
AcDbCircle
 10
2159.5
 20
528.48
 30
0.0
 40
2.0
100
AcDbArc
 50
-90.0
 51
90.0
  0
LINE
  5
5AD
100
AcDbEntity
  8
2
  6
Continuous
 62
   174
100
AcDbLine
 10
2158.618558
 20
530.48
 30
0.0
 11
2164.435667
 21
536.84345
 31
0.0
  0
LINE
  5
5AE
100
AcDbEntity
  8
2
  6
Continuous
 62
   174
100
AcDbLine
 10
2158.618558
 20
526.48
 30
0.0
 11
2164.435667
 21
520.11655
 31
0.0
  0
LINE
  5
5AF
100
AcDbEntity
  8
2
  6
Continuous
 62
   174
100
AcDbLine
 10
2172.5
 20
570.0
 30
0.0
 11
2100.0
 21
570.0
 31
0.0
  0
LINE
  5
5B0
100
AcDbEntity
  8
2
  6
Continuous
 62
   174
100
AcDbLine
 10
2172.5
 20
300.0
 30
0.0
 11
2100.0
 21
300.0
 31
0.0
  0
LINE
  5
5B1
100
AcDbEntity
  8
2
  6
Continuous
 62
   174
100
AcDbLine
 10
2472.5
 20
303.0
 30
0.0
 11
2400.0
 21
303.0
 31
0.0
  0
LINE
  5
5B2
100
AcDbEntity
  8
2
  6
Continuous
 62
   174
100
AcDbLine
 10
2472.5
 20
306.6
 30
0.0
 11
2472.5
 21
300.0
 31
0.0
  0
LINE
  5
5B3
100
AcDbEntity
  8
2
  6
Continuous
 62
   174
100
AcDbLine
 10
2400.0
 20
304.3
 30
0.0
 11
2472.5
 21
304.3
 31
0.0
  0
LINE
  5
5B4
100
AcDbEntity
  8
2
  6
Continuous
 62
   174
100
AcDbLine
 10
2400.0
 20
306.6
 30
0.0
 11
2500.0
 21
306.6
 31
0.0
  0
LINE
  5
5B5
100
AcDbEntity
  8
2
  6
Continuous
 62
   174
100
AcDbLine
 10
2500.0
 20
306.6
 30
0.0
 11
2500.0
 21
322.6
 31
0.0
  0
LINE
  5
5B6
100
AcDbEntity
  8
2
  6
Continuous
 62
   174
100
AcDbLine
 10
2500.0
 20
322.6
 30
0.0
 11
2400.0
 21
322.6
 31
0.0
  0
LINE
  5
5B7
100
AcDbEntity
  8
2
  6
CENTER
 62
   174
100
AcDbLine
 10
2482.5
 20
332.6
 30
0.0
 11
2482.5
 21
296.6
 31
0.0
  0
LINE
  5
5B8
100
AcDbEntity
  8
2
  6
CENTER
 62
   174
100
AcDbLine
 10
2482.5
 20
332.6
 30
0.0
 11
2482.5
 21
296.6
 31
0.0
  0
LINE
  5
5B9
100
AcDbEntity
  8
2
  6
HIDDEN
 62
   174
100
AcDbLine
 10
2473.0
 20
322.6
 30
0.0
 11
2473.0
 21
306.6
 31
0.0
  0
LINE
  5
5BA
100
AcDbEntity
  8
2
  6
HIDDEN
 62
   174
100
AcDbLine
 10
2492.0
 20
322.6
 30
0.0
 11
2492.0
 21
306.6
 31
0.0
  0
LINE
  5
5BB
100
AcDbEntity
  8
2
  6
CENTER
 62
   174
100
AcDbLine
 10
2467.0
 20
354.41
 30
0.0
 11
2457.0
 21
354.41
 31
0.0
  0
LINE
  5
5BC
100
AcDbEntity
  8
2
  6
Continuous
 62
   174
100
AcDbLine
 10
2456.885451
 20
323.523905
 30
0.0
 11
2464.321548
 21
330.884704
 31
0.0
  0
ARC
  5
5BD
100
AcDbEntity
  8
2
  6
Continuous
 62
   174
100
AcDbCircle
 10
2457.8
 20
322.6
 30
0.0
 40
1.3
100
AcDbArc
 50
134.707486
 51
180.0
  0
ARC
  5
5BE
100
AcDbEntity
  8
2
  6
Continuous
 62
   174
100
AcDbCircle
 10
2462.0
 20
333.23
 30
0.0
 40
3.3
100
AcDbArc
 50
-45.192148
 51
42.432476
  0
ARC
  5
5BF
100
AcDbEntity
  8
2
  6
Continuous
 62
   174
100
AcDbCircle
 10
2462.0
 20
354.41
 30
0.0
 40
3.3
100
AcDbArc
 50
-42.432339
 51
42.431806
  0
LINE
  5
5C0
100
AcDbEntity
  8
2
  6
Continuous
 62
   174
100
AcDbLine
 10
2459.5
 20
367.0
 30
0.0
 11
2400.0
 21
367.0
 31
0.0
  0
LINE
  5
5C1
100
AcDbEntity
  8
2
  6
Continuous
 62
   174
100
AcDbLine
 10
2459.5
 20
363.0
 30
0.0
 11
2400.0
 21
363.0
 31
0.0
  0
LINE
  5
5C2
100
AcDbEntity
  8
2
  6
Continuous
 62
   174
100
AcDbLine
 10
2462.0
 20
354.41
 30
0.0
 11
2400.0
 21
354.41
 31
0.0
  0
LINE
  5
5C3
100
AcDbEntity
  8
2
  6
Continuous
 62
   174
100
AcDbLine
 10
2459.5
 20
345.82
 30
0.0
 11
2400.0
 21
345.82
 31
0.0
  0
LINE
  5
5C4
100
AcDbEntity
  8
2
  6
Continuous
 62
   174
100
AcDbLine
 10
2459.5
 20
341.82
 30
0.0
 11
2400.0
 21
341.82
 31
0.0
  0
LINE
  5
5C5
100
AcDbEntity
  8
2
  6
Continuous
 62
   174
100
AcDbLine
 10
2462.0
 20
333.23
 30
0.0
 11
2400.0
 21
333.23
 31
0.0
  0
ARC
  5
5C6
100
AcDbEntity
  8
2
  6
Continuous
 62
   174
100
AcDbCircle
 10
2459.5
 20
343.82
 30
0.0
 40
2.0
100
AcDbArc
 50
-90.0
 51
90.0
  0
LINE
  5
5C7
100
AcDbEntity
  8
2
  6
Continuous
 62
   174
100
AcDbLine
 10
2458.618558
 20
345.82
 30
0.0
 11
2464.435667
 21
352.18345
 31
0.0
  0
LINE
  5
5C8
100
AcDbEntity
  8
2
  6
Continuous
 62
   174
100
AcDbLine
 10
2458.618558
 20
341.82
 30
0.0
 11
2464.435667
 21
335.45655
 31
0.0
  0
ARC
  5
5C9
100
AcDbEntity
  8
2
  6
Continuous
 62
   174
100
AcDbCircle
 10
2459.5
 20
365.0
 30
0.0
 40
2.0
100
AcDbArc
 50
-90.0
 51
90.0
  0
LINE
  5
5CA
100
AcDbEntity
  8
2
  6
Continuous
 62
   174
100
AcDbLine
 10
2461.630662
 20
370.295
 30
0.0
 11
2458.618558
 21
367.0
 31
0.0
  0
LINE
  5
5CB
100
AcDbEntity
  8
2
  6
Continuous
 62
   174
100
AcDbLine
 10
2458.618558
 20
363.0
 30
0.0
 11
2464.435667
 21
356.63655
 31
0.0
  0
LINE
  5
5CC
100
AcDbEntity
  8
2
  6
CENTER
 62
   174
100
AcDbLine
 10
2464.5
 20
365.0
 30
0.0
 11
2400.0
 21
365.0
 31
0.0
  0
LINE
  5
5CD
100
AcDbEntity
  8
2
  6
CENTER
 62
   174
100
AcDbLine
 10
2464.5
 20
343.82
 30
0.0
 11
2400.0
 21
343.82
 31
0.0
  0
LINE
  5
5CE
100
AcDbEntity
  8
2
  6
Continuous
 62
   174
100
AcDbLine
 10
2400.0
 20
585.7
 30
0.0
 11
2500.0
 21
585.7
 31
0.0
  0
LINE
  5
5CF
100
AcDbEntity
  8
2
  6
Continuous
 62
   174
100
AcDbLine
 10
2500.0
 20
585.7
 30
0.0
 11
2500.0
 21
569.7
 31
0.0
  0
LINE
  5
5D0
100
AcDbEntity
  8
2
  6
Continuous
 62
   174
100
AcDbLine
 10
2500.0
 20
569.7
 30
0.0
 11
2400.0
 21
569.7
 31
0.0
  0
LINE
  5
5D1
100
AcDbEntity
  8
2
  6
CENTER
 62
   174
100
AcDbLine
 10
2482.5
 20
559.7
 30
0.0
 11
2482.5
 21
595.7
 31
0.0
  0
LINE
  5
5D2
100
AcDbEntity
  8
2
  6
HIDDEN
 62
   174
100
AcDbLine
 10
2473.0
 20
569.7
 30
0.0
 11
2473.0
 21
585.7
 31
0.0
  0
LINE
  5
5D3
100
AcDbEntity
  8
2
  6
HIDDEN
 62
   174
100
AcDbLine
 10
2492.0
 20
569.7
 30
0.0
 11
2492.0
 21
585.7
 31
0.0
  0
LINE
  5
5D4
100
AcDbEntity
  8
2
  6
Continuous
 62
   174
100
AcDbLine
 10
2472.5
 20
585.7
 30
0.0
 11
2472.5
 21
590.0
 31
0.0
  0
LINE
  5
5D5
100
AcDbEntity
  8
2
  6
Continuous
 62
   174
100
AcDbLine
 10
2472.5
 20
587.0
 30
0.0
 11
2400.0
 21
587.0
 31
0.0
  0
LINE
  5
5D6
100
AcDbEntity
  8
2
  6
CENTER
 62
   174
100
AcDbLine
 10
2471.0
 20
569.7
 30
0.0
 11
2471.0
 21
322.6
 31
0.0
  0
LINE
  5
5D7
100
AcDbEntity
  8
2
  6
Continuous
 62
   174
100
AcDbLine
 10
2456.885451
 20
568.776095
 30
0.0
 11
2464.321548
 21
561.415296
 31
0.0
  0
ARC
  5
5D8
100
AcDbEntity
  8
2
  6
Continuous
 62
   174
100
AcDbCircle
 10
2457.8
 20
569.7
 30
0.0
 40
1.3
100
AcDbArc
 50
180.0
 51
-134.707486
  0
ARC
  5
5D9
100
AcDbEntity
  8
2
  6
Continuous
 62
   174
100
AcDbCircle
 10
2462.0
 20
559.07
 30
0.0
 40
3.3
100
AcDbArc
 50
-42.432476
 51
45.192148
  0
ARC
  5
5DA
100
AcDbEntity
  8
2
  6
Continuous
 62
   174
100
AcDbCircle
 10
2462.0
 20
537.89
 30
0.0
 40
3.3
100
AcDbArc
 50
-42.431806
 51
42.432339
  0
LINE
  5
5DB
100
AcDbEntity
  8
2
  6
CENTER
 62
   174
100
AcDbLine
 10
2465.3
 20
537.89
 30
0.0
 11
2465.3
 21
354.41
 31
0.0
  0
LINE
  5
5DC
100
AcDbEntity
  8
2
  6
Continuous
 62
   174
100
AcDbLine
 10
2462.0
 20
559.07
 30
0.0
 11
2400.0
 21
559.07
 31
0.0
  0
LINE
  5
5DD
100
AcDbEntity
  8
2
  6
Continuous
 62
   174
100
AcDbLine
 10
2459.5
 20
550.48
 30
0.0
 11
2400.0
 21
550.48
 31
0.0
  0
LINE
  5
5DE
100
AcDbEntity
  8
2
  6
Continuous
 62
   174
100
AcDbLine
 10
2459.5
 20
546.48
 30
0.0
 11
2400.0
 21
546.48
 31
0.0
  0
LINE
  5
5DF
100
AcDbEntity
  8
2
  6
Continuous
 62
   174
100
AcDbLine
 10
2462.0
 20
537.89
 30
0.0
 11
2400.0
 21
537.89
 31
0.0
  0
LINE
  5
5E0
100
AcDbEntity
  8
2
  6
Continuous
 62
   174
100
AcDbLine
 10
2459.5
 20
529.3
 30
0.0
 11
2400.0
 21
529.3
 31
0.0
  0
LINE
  5
5E1
100
AcDbEntity
  8
2
  6
Continuous
 62
   174
100
AcDbLine
 10
2459.5
 20
525.3
 30
0.0
 11
2400.0
 21
525.3
 31
0.0
  0
LINE
  5
5E2
100
AcDbEntity
  8
2
  6
CENTER
 62
   174
100
AcDbLine
 10
2464.5
 20
527.3
 30
0.0
 11
2400.0
 21
527.3
 31
0.0
  0
ARC
  5
5E3
100
AcDbEntity
  8
2
  6
Continuous
 62
   174
100
AcDbCircle
 10
2459.5
 20
527.3
 30
0.0
 40
2.0
100
AcDbArc
 50
-90.0
 51
90.0
  0
LINE
  5
5E4
100
AcDbEntity
  8
2
  6
Continuous
 62
   174
100
AcDbLine
 10
2461.630662
 20
522.005
 30
0.0
 11
2458.618558
 21
525.3
 31
0.0
  0
LINE
  5
5E5
100
AcDbEntity
  8
2
  6
Continuous
 62
   174
100
AcDbLine
 10
2458.618558
 20
529.3
 30
0.0
 11
2464.435667
 21
535.66345
 31
0.0
  0
LINE
  5
5E6
100
AcDbEntity
  8
2
  6
CENTER
 62
   174
100
AcDbLine
 10
2464.5
 20
548.48
 30
0.0
 11
2400.0
 21
548.48
 31
0.0
  0
ARC
  5
5E7
100
AcDbEntity
  8
2
  6
Continuous
 62
   174
100
AcDbCircle
 10
2459.5
 20
548.48
 30
0.0
 40
2.0
100
AcDbArc
 50
-90.0
 51
90.0
  0
LINE
  5
5E8
100
AcDbEntity
  8
2
  6
Continuous
 62
   174
100
AcDbLine
 10
2458.618558
 20
550.48
 30
0.0
 11
2464.435667
 21
556.84345
 31
0.0
  0
LINE
  5
5E9
100
AcDbEntity
  8
2
  6
Continuous
 62
   174
100
AcDbLine
 10
2458.618558
 20
546.48
 30
0.0
 11
2464.435667
 21
540.11655
 31
0.0
  0
LINE
  5
5EA
100
AcDbEntity
  8
2
  6
Continuous
 62
   174
100
AcDbLine
 10
2472.5
 20
300.0
 30
0.0
 11
2400.0
 21
300.0
 31
0.0
  0
LINE
  5
5EB
100
AcDbEntity
  8
2
  6
Continuous
 62
   174
100
AcDbLine
 10
2472.5
 20
590.0
 30
0.0
 11
2400.0
 21
590.0
 31
0.0
  0
LINE
  5
5EC
100
AcDbEntity
  8
2
  6
Continuous
 62
   174
100
AcDbLine
 10
2772.5
 20
303.0
 30
0.0
 11
2700.0
 21
303.0
 31
0.0
  0
LINE
  5
5ED
100
AcDbEntity
  8
2
  6
Continuous
 62
   174
100
AcDbLine
 10
2772.5
 20
306.6
 30
0.0
 11
2772.5
 21
300.0
 31
0.0
  0
LINE
  5
5EE
100
AcDbEntity
  8
2
  6
Continuous
 62
   174
100
AcDbLine
 10
2700.0
 20
304.3
 30
0.0
 11
2772.5
 21
304.3
 31
0.0
  0
LINE
  5
5EF
100
AcDbEntity
  8
2
  6
Continuous
 62
   174
100
AcDbLine
 10
2700.0
 20
306.6
 30
0.0
 11
2800.0
 21
306.6
 31
0.0
  0
LINE
  5
5F0
100
AcDbEntity
  8
2
  6
Continuous
 62
   174
100
AcDbLine
 10
2800.0
 20
306.6
 30
0.0
 11
2800.0
 21
322.6
 31
0.0
  0
LINE
  5
5F1
100
AcDbEntity
  8
2
  6
Continuous
 62
   174
100
AcDbLine
 10
2800.0
 20
322.6
 30
0.0
 11
2700.0
 21
322.6
 31
0.0
  0
LINE
  5
5F2
100
AcDbEntity
  8
2
  6
CENTER
 62
   174
100
AcDbLine
 10
2782.5
 20
332.6
 30
0.0
 11
2782.5
 21
296.6
 31
0.0
  0
LINE
  5
5F3
100
AcDbEntity
  8
2
  6
CENTER
 62
   174
100
AcDbLine
 10
2782.5
 20
332.6
 30
0.0
 11
2782.5
 21
296.6
 31
0.0
  0
LINE
  5
5F4
100
AcDbEntity
  8
2
  6
HIDDEN
 62
   174
100
AcDbLine
 10
2773.0
 20
322.6
 30
0.0
 11
2773.0
 21
306.6
 31
0.0
  0
LINE
  5
5F5
100
AcDbEntity
  8
2
  6
HIDDEN
 62
   174
100
AcDbLine
 10
2792.0
 20
322.6
 30
0.0
 11
2792.0
 21
306.6
 31
0.0
  0
LINE
  5
5F6
100
AcDbEntity
  8
2
  6
CENTER
 62
   174
100
AcDbLine
 10
2767.0
 20
354.41
 30
0.0
 11
2757.0
 21
354.41
 31
0.0
  0
LINE
  5
5F7
100
AcDbEntity
  8
2
  6
Continuous
 62
   174
100
AcDbLine
 10
2756.885451
 20
323.523905
 30
0.0
 11
2764.321548
 21
330.884704
 31
0.0
  0
ARC
  5
5F8
100
AcDbEntity
  8
2
  6
Continuous
 62
   174
100
AcDbCircle
 10
2757.8
 20
322.6
 30
0.0
 40
1.3
100
AcDbArc
 50
134.707486
 51
180.0
  0
ARC
  5
5F9
100
AcDbEntity
  8
2
  6
Continuous
 62
   174
100
AcDbCircle
 10
2762.0
 20
333.23
 30
0.0
 40
3.3
100
AcDbArc
 50
-45.192148
 51
42.432476
  0
ARC
  5
5FA
100
AcDbEntity
  8
2
  6
Continuous
 62
   174
100
AcDbCircle
 10
2762.0
 20
354.41
 30
0.0
 40
3.3
100
AcDbArc
 50
-42.432339
 51
42.431806
  0
LINE
  5
5FB
100
AcDbEntity
  8
2
  6
Continuous
 62
   174
100
AcDbLine
 10
2759.5
 20
367.0
 30
0.0
 11
2700.0
 21
367.0
 31
0.0
  0
LINE
  5
5FC
100
AcDbEntity
  8
2
  6
Continuous
 62
   174
100
AcDbLine
 10
2759.5
 20
363.0
 30
0.0
 11
2700.0
 21
363.0
 31
0.0
  0
LINE
  5
5FD
100
AcDbEntity
  8
2
  6
Continuous
 62
   174
100
AcDbLine
 10
2762.0
 20
354.41
 30
0.0
 11
2700.0
 21
354.41
 31
0.0
  0
LINE
  5
5FE
100
AcDbEntity
  8
2
  6
Continuous
 62
   174
100
AcDbLine
 10
2759.5
 20
345.82
 30
0.0
 11
2700.0
 21
345.82
 31
0.0
  0
LINE
  5
5FF
100
AcDbEntity
  8
2
  6
Continuous
 62
   174
100
AcDbLine
 10
2759.5
 20
341.82
 30
0.0
 11
2700.0
 21
341.82
 31
0.0
  0
LINE
  5
600
100
AcDbEntity
  8
2
  6
Continuous
 62
   174
100
AcDbLine
 10
2762.0
 20
333.23
 30
0.0
 11
2700.0
 21
333.23
 31
0.0
  0
ARC
  5
601
100
AcDbEntity
  8
2
  6
Continuous
 62
   174
100
AcDbCircle
 10
2759.5
 20
343.82
 30
0.0
 40
2.0
100
AcDbArc
 50
-90.0
 51
90.0
  0
LINE
  5
602
100
AcDbEntity
  8
2
  6
Continuous
 62
   174
100
AcDbLine
 10
2758.618558
 20
345.82
 30
0.0
 11
2764.435667
 21
352.18345
 31
0.0
  0
LINE
  5
603
100
AcDbEntity
  8
2
  6
Continuous
 62
   174
100
AcDbLine
 10
2758.618558
 20
341.82
 30
0.0
 11
2764.435667
 21
335.45655
 31
0.0
  0
ARC
  5
604
100
AcDbEntity
  8
2
  6
Continuous
 62
   174
100
AcDbCircle
 10
2759.5
 20
365.0
 30
0.0
 40
2.0
100
AcDbArc
 50
-90.0
 51
90.0
  0
LINE
  5
605
100
AcDbEntity
  8
2
  6
Continuous
 62
   174
100
AcDbLine
 10
2761.630662
 20
370.295
 30
0.0
 11
2758.618558
 21
367.0
 31
0.0
  0
LINE
  5
606
100
AcDbEntity
  8
2
  6
Continuous
 62
   174
100
AcDbLine
 10
2758.618558
 20
363.0
 30
0.0
 11
2764.435667
 21
356.63655
 31
0.0
  0
LINE
  5
607
100
AcDbEntity
  8
2
  6
CENTER
 62
   174
100
AcDbLine
 10
2764.5
 20
365.0
 30
0.0
 11
2700.0
 21
365.0
 31
0.0
  0
LINE
  5
608
100
AcDbEntity
  8
2
  6
CENTER
 62
   174
100
AcDbLine
 10
2764.5
 20
343.82
 30
0.0
 11
2700.0
 21
343.82
 31
0.0
  0
LINE
  5
609
100
AcDbEntity
  8
2
  6
Continuous
 62
   174
100
AcDbLine
 10
2700.0
 20
605.7
 30
0.0
 11
2800.0
 21
605.7
 31
0.0
  0
LINE
  5
60A
100
AcDbEntity
  8
2
  6
Continuous
 62
   174
100
AcDbLine
 10
2800.0
 20
605.7
 30
0.0
 11
2800.0
 21
589.7
 31
0.0
  0
LINE
  5
60B
100
AcDbEntity
  8
2
  6
Continuous
 62
   174
100
AcDbLine
 10
2800.0
 20
589.7
 30
0.0
 11
2700.0
 21
589.7
 31
0.0
  0
LINE
  5
60C
100
AcDbEntity
  8
2
  6
CENTER
 62
   174
100
AcDbLine
 10
2782.5
 20
579.7
 30
0.0
 11
2782.5
 21
615.7
 31
0.0
  0
LINE
  5
60D
100
AcDbEntity
  8
2
  6
HIDDEN
 62
   174
100
AcDbLine
 10
2773.0
 20
589.7
 30
0.0
 11
2773.0
 21
605.7
 31
0.0
  0
LINE
  5
60E
100
AcDbEntity
  8
2
  6
HIDDEN
 62
   174
100
AcDbLine
 10
2792.0
 20
589.7
 30
0.0
 11
2792.0
 21
605.7
 31
0.0
  0
LINE
  5
60F
100
AcDbEntity
  8
2
  6
Continuous
 62
   174
100
AcDbLine
 10
2772.5
 20
605.7
 30
0.0
 11
2772.5
 21
610.0
 31
0.0
  0
LINE
  5
610
100
AcDbEntity
  8
2
  6
Continuous
 62
   174
100
AcDbLine
 10
2772.5
 20
607.0
 30
0.0
 11
2700.0
 21
607.0
 31
0.0
  0
LINE
  5
611
100
AcDbEntity
  8
2
  6
CENTER
 62
   174
100
AcDbLine
 10
2771.0
 20
589.7
 30
0.0
 11
2771.0
 21
322.6
 31
0.0
  0
LINE
  5
612
100
AcDbEntity
  8
2
  6
Continuous
 62
   174
100
AcDbLine
 10
2756.885451
 20
588.776095
 30
0.0
 11
2764.321548
 21
581.415296
 31
0.0
  0
ARC
  5
613
100
AcDbEntity
  8
2
  6
Continuous
 62
   174
100
AcDbCircle
 10
2757.8
 20
589.7
 30
0.0
 40
1.3
100
AcDbArc
 50
180.0
 51
-134.707486
  0
ARC
  5
614
100
AcDbEntity
  8
2
  6
Continuous
 62
   174
100
AcDbCircle
 10
2762.0
 20
579.07
 30
0.0
 40
3.3
100
AcDbArc
 50
-42.432476
 51
45.192148
  0
ARC
  5
615
100
AcDbEntity
  8
2
  6
Continuous
 62
   174
100
AcDbCircle
 10
2762.0
 20
557.89
 30
0.0
 40
3.3
100
AcDbArc
 50
-42.431806
 51
42.432339
  0
LINE
  5
616
100
AcDbEntity
  8
2
  6
CENTER
 62
   174
100
AcDbLine
 10
2765.3
 20
557.89
 30
0.0
 11
2765.3
 21
354.41
 31
0.0
  0
LINE
  5
617
100
AcDbEntity
  8
2
  6
Continuous
 62
   174
100
AcDbLine
 10
2762.0
 20
579.07
 30
0.0
 11
2700.0
 21
579.07
 31
0.0
  0
LINE
  5
618
100
AcDbEntity
  8
2
  6
Continuous
 62
   174
100
AcDbLine
 10
2759.5
 20
570.48
 30
0.0
 11
2700.0
 21
570.48
 31
0.0
  0
LINE
  5
619
100
AcDbEntity
  8
2
  6
Continuous
 62
   174
100
AcDbLine
 10
2759.5
 20
566.48
 30
0.0
 11
2700.0
 21
566.48
 31
0.0
  0
LINE
  5
61A
100
AcDbEntity
  8
2
  6
Continuous
 62
   174
100
AcDbLine
 10
2762.0
 20
557.89
 30
0.0
 11
2700.0
 21
557.89
 31
0.0
  0
LINE
  5
61B
100
AcDbEntity
  8
2
  6
Continuous
 62
   174
100
AcDbLine
 10
2759.5
 20
549.3
 30
0.0
 11
2700.0
 21
549.3
 31
0.0
  0
LINE
  5
61C
100
AcDbEntity
  8
2
  6
Continuous
 62
   174
100
AcDbLine
 10
2759.5
 20
545.3
 30
0.0
 11
2700.0
 21
545.3
 31
0.0
  0
LINE
  5
61D
100
AcDbEntity
  8
2
  6
CENTER
 62
   174
100
AcDbLine
 10
2764.5
 20
547.3
 30
0.0
 11
2700.0
 21
547.3
 31
0.0
  0
ARC
  5
61E
100
AcDbEntity
  8
2
  6
Continuous
 62
   174
100
AcDbCircle
 10
2759.5
 20
547.3
 30
0.0
 40
2.0
100
AcDbArc
 50
-90.0
 51
90.0
  0
LINE
  5
61F
100
AcDbEntity
  8
2
  6
Continuous
 62
   174
100
AcDbLine
 10
2761.630662
 20
542.005
 30
0.0
 11
2758.618558
 21
545.3
 31
0.0
  0
LINE
  5
620
100
AcDbEntity
  8
2
  6
Continuous
 62
   174
100
AcDbLine
 10
2758.618558
 20
549.3
 30
0.0
 11
2764.435667
 21
555.66345
 31
0.0
  0
LINE
  5
621
100
AcDbEntity
  8
2
  6
CENTER
 62
   174
100
AcDbLine
 10
2764.5
 20
568.48
 30
0.0
 11
2700.0
 21
568.48
 31
0.0
  0
ARC
  5
622
100
AcDbEntity
  8
2
  6
Continuous
 62
   174
100
AcDbCircle
 10
2759.5
 20
568.48
 30
0.0
 40
2.0
100
AcDbArc
 50
-90.0
 51
90.0
  0
LINE
  5
623
100
AcDbEntity
  8
2
  6
Continuous
 62
   174
100
AcDbLine
 10
2758.618558
 20
570.48
 30
0.0
 11
2764.435667
 21
576.84345
 31
0.0
  0
LINE
  5
624
100
AcDbEntity
  8
2
  6
Continuous
 62
   174
100
AcDbLine
 10
2758.618558
 20
566.48
 30
0.0
 11
2764.435667
 21
560.11655
 31
0.0
  0
LINE
  5
625
100
AcDbEntity
  8
2
  6
Continuous
 62
   174
100
AcDbLine
 10
2772.5
 20
610.0
 30
0.0
 11
2700.0
 21
610.0
 31
0.0
  0
LINE
  5
626
100
AcDbEntity
  8
2
  6
Continuous
 62
   174
100
AcDbLine
 10
2772.5
 20
300.0
 30
0.0
 11
2700.0
 21
300.0
 31
0.0
  0
LINE
  5
627
100
AcDbEntity
  8
2
  6
Continuous
 62
   174
100
AcDbLine
 10
3072.5
 20
303.0
 30
0.0
 11
3000.0
 21
303.0
 31
0.0
  0
LINE
  5
628
100
AcDbEntity
  8
2
  6
Continuous
 62
   174
100
AcDbLine
 10
3072.5
 20
306.6
 30
0.0
 11
3072.5
 21
300.0
 31
0.0
  0
LINE
  5
629
100
AcDbEntity
  8
2
  6
Continuous
 62
   174
100
AcDbLine
 10
3000.0
 20
304.3
 30
0.0
 11
3072.5
 21
304.3
 31
0.0
  0
LINE
  5
62A
100
AcDbEntity
  8
2
  6
Continuous
 62
   174
100
AcDbLine
 10
3000.0
 20
306.6
 30
0.0
 11
3100.0
 21
306.6
 31
0.0
  0
LINE
  5
62B
100
AcDbEntity
  8
2
  6
Continuous
 62
   174
100
AcDbLine
 10
3100.0
 20
306.6
 30
0.0
 11
3100.0
 21
322.6
 31
0.0
  0
LINE
  5
62C
100
AcDbEntity
  8
2
  6
Continuous
 62
   174
100
AcDbLine
 10
3100.0
 20
322.6
 30
0.0
 11
3000.0
 21
322.6
 31
0.0
  0
LINE
  5
62D
100
AcDbEntity
  8
2
  6
CENTER
 62
   174
100
AcDbLine
 10
3082.5
 20
332.6
 30
0.0
 11
3082.5
 21
296.6
 31
0.0
  0
LINE
  5
62E
100
AcDbEntity
  8
2
  6
CENTER
 62
   174
100
AcDbLine
 10
3082.5
 20
332.6
 30
0.0
 11
3082.5
 21
296.6
 31
0.0
  0
LINE
  5
62F
100
AcDbEntity
  8
2
  6
HIDDEN
 62
   174
100
AcDbLine
 10
3073.0
 20
322.6
 30
0.0
 11
3073.0
 21
306.6
 31
0.0
  0
LINE
  5
630
100
AcDbEntity
  8
2
  6
HIDDEN
 62
   174
100
AcDbLine
 10
3092.0
 20
322.6
 30
0.0
 11
3092.0
 21
306.6
 31
0.0
  0
LINE
  5
631
100
AcDbEntity
  8
2
  6
CENTER
 62
   174
100
AcDbLine
 10
3067.0
 20
354.41
 30
0.0
 11
3057.0
 21
354.41
 31
0.0
  0
LINE
  5
632
100
AcDbEntity
  8
2
  6
Continuous
 62
   174
100
AcDbLine
 10
3056.885451
 20
323.523905
 30
0.0
 11
3064.321548
 21
330.884704
 31
0.0
  0
ARC
  5
633
100
AcDbEntity
  8
2
  6
Continuous
 62
   174
100
AcDbCircle
 10
3057.8
 20
322.6
 30
0.0
 40
1.3
100
AcDbArc
 50
134.707486
 51
180.0
  0
ARC
  5
634
100
AcDbEntity
  8
2
  6
Continuous
 62
   174
100
AcDbCircle
 10
3062.0
 20
333.23
 30
0.0
 40
3.3
100
AcDbArc
 50
-45.192148
 51
42.432476
  0
ARC
  5
635
100
AcDbEntity
  8
2
  6
Continuous
 62
   174
100
AcDbCircle
 10
3062.0
 20
354.41
 30
0.0
 40
3.3
100
AcDbArc
 50
-42.432339
 51
42.431806
  0
LINE
  5
636
100
AcDbEntity
  8
2
  6
Continuous
 62
   174
100
AcDbLine
 10
3059.5
 20
367.0
 30
0.0
 11
3000.0
 21
367.0
 31
0.0
  0
LINE
  5
637
100
AcDbEntity
  8
2
  6
Continuous
 62
   174
100
AcDbLine
 10
3059.5
 20
363.0
 30
0.0
 11
3000.0
 21
363.0
 31
0.0
  0
LINE
  5
638
100
AcDbEntity
  8
2
  6
Continuous
 62
   174
100
AcDbLine
 10
3062.0
 20
354.41
 30
0.0
 11
3000.0
 21
354.41
 31
0.0
  0
LINE
  5
639
100
AcDbEntity
  8
2
  6
Continuous
 62
   174
100
AcDbLine
 10
3059.5
 20
345.82
 30
0.0
 11
3000.0
 21
345.82
 31
0.0
  0
LINE
  5
63A
100
AcDbEntity
  8
2
  6
Continuous
 62
   174
100
AcDbLine
 10
3059.5
 20
341.82
 30
0.0
 11
3000.0
 21
341.82
 31
0.0
  0
LINE
  5
63B
100
AcDbEntity
  8
2
  6
Continuous
 62
   174
100
AcDbLine
 10
3062.0
 20
333.23
 30
0.0
 11
3000.0
 21
333.23
 31
0.0
  0
ARC
  5
63C
100
AcDbEntity
  8
2
  6
Continuous
 62
   174
100
AcDbCircle
 10
3059.5
 20
343.82
 30
0.0
 40
2.0
100
AcDbArc
 50
-90.0
 51
90.0
  0
LINE
  5
63D
100
AcDbEntity
  8
2
  6
Continuous
 62
   174
100
AcDbLine
 10
3058.618558
 20
345.82
 30
0.0
 11
3064.435667
 21
352.18345
 31
0.0
  0
LINE
  5
63E
100
AcDbEntity
  8
2
  6
Continuous
 62
   174
100
AcDbLine
 10
3058.618558
 20
341.82
 30
0.0
 11
3064.435667
 21
335.45655
 31
0.0
  0
ARC
  5
63F
100
AcDbEntity
  8
2
  6
Continuous
 62
   174
100
AcDbCircle
 10
3059.5
 20
365.0
 30
0.0
 40
2.0
100
AcDbArc
 50
-90.0
 51
90.0
  0
LINE
  5
640
100
AcDbEntity
  8
2
  6
Continuous
 62
   174
100
AcDbLine
 10
3061.630662
 20
370.295
 30
0.0
 11
3058.618558
 21
367.0
 31
0.0
  0
LINE
  5
641
100
AcDbEntity
  8
2
  6
Continuous
 62
   174
100
AcDbLine
 10
3058.618558
 20
363.0
 30
0.0
 11
3064.435667
 21
356.63655
 31
0.0
  0
LINE
  5
642
100
AcDbEntity
  8
2
  6
CENTER
 62
   174
100
AcDbLine
 10
3064.5
 20
365.0
 30
0.0
 11
3000.0
 21
365.0
 31
0.0
  0
LINE
  5
643
100
AcDbEntity
  8
2
  6
CENTER
 62
   174
100
AcDbLine
 10
3064.5
 20
343.82
 30
0.0
 11
3000.0
 21
343.82
 31
0.0
  0
LINE
  5
644
100
AcDbEntity
  8
2
  6
Continuous
 62
   174
100
AcDbLine
 10
3000.0
 20
625.7
 30
0.0
 11
3100.0
 21
625.7
 31
0.0
  0
LINE
  5
645
100
AcDbEntity
  8
2
  6
Continuous
 62
   174
100
AcDbLine
 10
3100.0
 20
625.7
 30
0.0
 11
3100.0
 21
609.7
 31
0.0
  0
LINE
  5
646
100
AcDbEntity
  8
2
  6
Continuous
 62
   174
100
AcDbLine
 10
3100.0
 20
609.7
 30
0.0
 11
3000.0
 21
609.7
 31
0.0
  0
LINE
  5
647
100
AcDbEntity
  8
2
  6
CENTER
 62
   174
100
AcDbLine
 10
3082.5
 20
599.7
 30
0.0
 11
3082.5
 21
635.7
 31
0.0
  0
LINE
  5
648
100
AcDbEntity
  8
2
  6
HIDDEN
 62
   174
100
AcDbLine
 10
3073.0
 20
609.7
 30
0.0
 11
3073.0
 21
625.7
 31
0.0
  0
LINE
  5
649
100
AcDbEntity
  8
2
  6
HIDDEN
 62
   174
100
AcDbLine
 10
3092.0
 20
609.7
 30
0.0
 11
3092.0
 21
625.7
 31
0.0
  0
LINE
  5
64A
100
AcDbEntity
  8
2
  6
Continuous
 62
   174
100
AcDbLine
 10
3072.5
 20
625.7
 30
0.0
 11
3072.5
 21
630.0
 31
0.0
  0
LINE
  5
64B
100
AcDbEntity
  8
2
  6
Continuous
 62
   174
100
AcDbLine
 10
3072.5
 20
627.0
 30
0.0
 11
3000.0
 21
627.0
 31
0.0
  0
LINE
  5
64C
100
AcDbEntity
  8
2
  6
CENTER
 62
   174
100
AcDbLine
 10
3071.0
 20
609.7
 30
0.0
 11
3071.0
 21
322.6
 31
0.0
  0
LINE
  5
64D
100
AcDbEntity
  8
2
  6
Continuous
 62
   174
100
AcDbLine
 10
3056.885451
 20
608.776095
 30
0.0
 11
3064.321548
 21
601.415296
 31
0.0
  0
ARC
  5
64E
100
AcDbEntity
  8
2
  6
Continuous
 62
   174
100
AcDbCircle
 10
3057.8
 20
609.7
 30
0.0
 40
1.3
100
AcDbArc
 50
180.0
 51
-134.707486
  0
ARC
  5
64F
100
AcDbEntity
  8
2
  6
Continuous
 62
   174
100
AcDbCircle
 10
3062.0
 20
599.07
 30
0.0
 40
3.3
100
AcDbArc
 50
-42.432476
 51
45.192148
  0
ARC
  5
650
100
AcDbEntity
  8
2
  6
Continuous
 62
   174
100
AcDbCircle
 10
3062.0
 20
577.89
 30
0.0
 40
3.3
100
AcDbArc
 50
-42.431806
 51
42.432339
  0
LINE
  5
651
100
AcDbEntity
  8
2
  6
CENTER
 62
   174
100
AcDbLine
 10
3065.3
 20
577.89
 30
0.0
 11
3065.3
 21
354.41
 31
0.0
  0
LINE
  5
652
100
AcDbEntity
  8
2
  6
Continuous
 62
   174
100
AcDbLine
 10
3062.0
 20
599.07
 30
0.0
 11
3000.0
 21
599.07
 31
0.0
  0
LINE
  5
653
100
AcDbEntity
  8
2
  6
Continuous
 62
   174
100
AcDbLine
 10
3059.5
 20
590.48
 30
0.0
 11
3000.0
 21
590.48
 31
0.0
  0
LINE
  5
654
100
AcDbEntity
  8
2
  6
Continuous
 62
   174
100
AcDbLine
 10
3059.5
 20
586.48
 30
0.0
 11
3000.0
 21
586.48
 31
0.0
  0
LINE
  5
655
100
AcDbEntity
  8
2
  6
Continuous
 62
   174
100
AcDbLine
 10
3062.0
 20
577.89
 30
0.0
 11
3000.0
 21
577.89
 31
0.0
  0
LINE
  5
656
100
AcDbEntity
  8
2
  6
Continuous
 62
   174
100
AcDbLine
 10
3059.5
 20
569.3
 30
0.0
 11
3000.0
 21
569.3
 31
0.0
  0
LINE
  5
657
100
AcDbEntity
  8
2
  6
Continuous
 62
   174
100
AcDbLine
 10
3059.5
 20
565.3
 30
0.0
 11
3000.0
 21
565.3
 31
0.0
  0
LINE
  5
658
100
AcDbEntity
  8
2
  6
CENTER
 62
   174
100
AcDbLine
 10
3064.5
 20
567.3
 30
0.0
 11
3000.0
 21
567.3
 31
0.0
  0
ARC
  5
659
100
AcDbEntity
  8
2
  6
Continuous
 62
   174
100
AcDbCircle
 10
3059.5
 20
567.3
 30
0.0
 40
2.0
100
AcDbArc
 50
-90.0
 51
90.0
  0
LINE
  5
65A
100
AcDbEntity
  8
2
  6
Continuous
 62
   174
100
AcDbLine
 10
3061.630662
 20
562.005
 30
0.0
 11
3058.618558
 21
565.3
 31
0.0
  0
LINE
  5
65B
100
AcDbEntity
  8
2
  6
Continuous
 62
   174
100
AcDbLine
 10
3058.618558
 20
569.3
 30
0.0
 11
3064.435667
 21
575.66345
 31
0.0
  0
LINE
  5
65C
100
AcDbEntity
  8
2
  6
CENTER
 62
   174
100
AcDbLine
 10
3064.5
 20
588.48
 30
0.0
 11
3000.0
 21
588.48
 31
0.0
  0
ARC
  5
65D
100
AcDbEntity
  8
2
  6
Continuous
 62
   174
100
AcDbCircle
 10
3059.5
 20
588.48
 30
0.0
 40
2.0
100
AcDbArc
 50
-90.0
 51
90.0
  0
LINE
  5
65E
100
AcDbEntity
  8
2
  6
Continuous
 62
   174
100
AcDbLine
 10
3058.618558
 20
590.48
 30
0.0
 11
3064.435667
 21
596.84345
 31
0.0
  0
LINE
  5
65F
100
AcDbEntity
  8
2
  6
Continuous
 62
   174
100
AcDbLine
 10
3058.618558
 20
586.48
 30
0.0
 11
3064.435667
 21
580.11655
 31
0.0
  0
LINE
  5
660
100
AcDbEntity
  8
2
  6
Continuous
 62
   174
100
AcDbLine
 10
3072.5
 20
300.0
 30
0.0
 11
3000.0
 21
300.0
 31
0.0
  0
LINE
  5
661
100
AcDbEntity
  8
2
  6
Continuous
 62
   174
100
AcDbLine
 10
3072.5
 20
630.0
 30
0.0
 11
3000.0
 21
630.0
 31
0.0
  0
ENDSEC
  0
SECTION
  2
OBJECTS
  0
DICTIONARY
  5
19
100
AcDbDictionary
280
     0
281
     1
  3
ACAD_GROUP
350
1A
  3
ACAD_MLINESTYLE
350
1B
  3
ACAD_LAYOUT
350
1E
  3
ACAD_PLOTSETTINGS
350
22
  3
ACAD_PLOTSTYLENAME
350
1F
  3
ACAD_WIPEOUT_VARS
350
23
  0
DICTIONARY
  5
1A
102
{ACAD_REACTORS
330
19
102
}
100
AcDbDictionary
280
     0
281
     1
  0
DICTIONARY
  5
1B
102
{ACAD_REACTORS
330
19
102
}
100
AcDbDictionary
280
     0
281
     1
  3
Standard
350
1C
  0
MLINESTYLE
  5
1C
102
{ACAD_REACTORS
330
1B
102
}
100
AcDbMlineStyle
  2
Standard
 70
     0
  3

 62
     0
 51
90.0
 52
90.0
 71
     2
 49
0.5
 62
   256
  6
BYLAYER
 49
-0.5
 62
   256
  6
BYLAYER
  0
ACDBDICTIONARYWDFLT
  5
1F
102
{ACAD_REACTORS
330
19
102
}
100
AcDbDictionary
281
     1
  3
Normal
350
1D
100
AcDbDictionaryWithDefault
340
1D
  0
ACDBPLACEHOLDER
  5
1D
102
{ACAD_REACTORS
330
1F
102
}
  0
LAYOUT
  5
20
102
{ACAD_REACTORS
330
1E
102
}
100
AcDbPlotSettings
  1

  2

  4

  6

 40
0.0
 41
0.0
 42
0.0
 43
0.0
 44
0.0
 45
0.0
 46
0.0
 47
0.0
 48
0.0
 49
0.0
140
0.0
141
0.0
142
1.0
143
1.0
 70
  1024
 72
     0
 73
     0
 74
     0
  7

 75
     0
147
1.0
148
0.0
149
0.0
100
AcDbLayout
  1
Model
 70
     0
 71
     0
 10
0.0
 20
0.0
 11
0.0
 21
0.0
 12
0.0
 22
0.0
 32
0.0
 14
0.0
 24
0.0
 34
0.0
 15
0.0
 25
0.0
 35
0.0
146
0.0
 13
0.0
 23
0.0
 33
0.0
 16
0.0
 26
0.0
 36
0.0
 17
0.0
 27
0.0
 37
0.0
 76
     0
330
A
331
0
345
0
346
0
  0
LAYOUT
  5
21
102
{ACAD_REACTORS
330
1E
102
}
100
AcDbPlotSettings
  1

  2

  4

  6

 40
0.0
 41
0.0
 42
0.0
 43
0.0
 44
0.0
 45
0.0
 46
0.0
 47
0.0
 48
0.0
 49
0.0
140
0.0
141
0.0
142
1.0
143
1.0
 70
     0
 72
     0
 73
     0
 74
     0
  7

 75
     0
147
1.0
148
0.0
149
0.0
100
AcDbLayout
  1
Layout1
 70
     0
 71
     0
 10
0.0
 20
0.0
 11
0.0
 21
0.0
 12
0.0
 22
0.0
 32
0.0
 14
0.0
 24
0.0
 34
0.0
 15
0.0
 25
0.0
 35
0.0
146
0.0
 13
0.0
 23
0.0
 33
0.0
 16
0.0
 26
0.0
 36
0.0
 17
0.0
 27
0.0
 37
0.0
 76
     0
330
B
331
0
345
0
346
0
  0
DICTIONARY
  5
1E
102
{ACAD_REACTORS
330
19
102
}
100
AcDbDictionary
280
     0
281
     1
  3
Layout1
350
21
  3
Model
350
20
  0
DICTIONARY
  5
22
102
{ACAD_REACTORS
330
19
102
}
100
AcDbDictionary
280
     0
281
     1
  0
WIPEOUTVARIABLES
  5
23
100
AcDbWipeoutVariables
 70
     1
  0
ENDSEC
  0
EOF
