  0
SECTION
  2
HEADER
  9
$ACADVER
  1
AC1015
  9
$ACADMAINTVER
 70
     6
  9
$DWGCODEPAGE
  3
DOS932
  9
$INSBASE
 10
0.0
 20
0.0
 30
0.0
  9
$EXTMIN
 10
0.0
 20
0.0
 30
0.0
  9
$EXTMAX
 10
5940.0
 20
4200.0
 30
0.0
  9
$LIMMIN
 10
0.0
 20
0.0
  9
$LIMMAX
 10
5940.0
 20
4200.0
  9
$ORTHOMODE
 70
     0
  9
$REGENMODE
 70
     1
  9
$FILLMODE
 70
     1
  9
$QTEXTMODE
 70
     0
  9
$MIRRTEXT
 70
     1
  9
$LTSCALE
 40
5.0
  9
$ATTMODE
 70
     1
  9
$TEXTSIZE
 40
100.0
  9
$TRACEWID
 40
0.05
  9
$TEXTSTYLE
  7
Standard
  9
$CLAYER
  8
0
  9
$CELTYPE
  6
Continuous
  9
$CECOLOR
 62
   256
  9
$CELTSCALE
 40
1.0
  9
$DISPSILH
 70
     0
  9
$DIMSCALE
 40
20.0
  9
$DIMASZ
 40
2.0
  9
$DIMEXO
 40
1.0
  9
$DIMDLI
 40
10.0
  9
$DIMRND
 40
0.0
  9
$DIMDLE
 40
0.0
  9
$DIMEXE
 40
1.0
  9
$DIMTP
 40
0.0
  9
$DIMTM
 40
0.0
  9
$DIMTXT
 40
3.0
  9
$DIMCEN
 40
0.09
  9
$DIMTSZ
 40
0.0
  9
$DIMTOL
 70
     0
  9
$DIMLIM
 70
     0
  9
$DIMTIH
 70
     0
  9
$DIMTOH
 70
     0
  9
$DIMSE1
 70
     0
  9
$DIMSE2
 70
     0
  9
$DIMTAD
 70
     3
  9
$DIMZIN
 70
     0
  9
$DIMBLK
  1

  9
$DIMASO
 70
     1
  9
$DIMSHO
 70
     1
  9
$DIMPOST
  1

  9
$DIMAPOST
  1

  9
$DIMALT
 70
     0
  9
$DIMALTD
 70
     2
  9
$DIMALTF
 40
25.4
  9
$DIMLFAC
 40
1.0
  9
$DIMTOFL
 70
     1
  9
$DIMTVP
 40
0.7
  9
$DIMTIX
 70
     0
  9
$DIMSOXD
 70
     0
  9
$DIMSAH
 70
     0
  9
$DIMBLK1
  1

  9
$DIMBLK2
  1

  9
$DIMSTYLE
  2
Standard
  9
$DIMCLRD
 70
     0
  9
$DIMCLRE
 70
     0
  9
$DIMCLRT
 70
     0
  9
$DIMTFAC
 40
0.5
  9
$DIMGAP
 40
0.0
  9
$DIMJUST
 70
     0
  9
$DIMSD1
 70
     0
  9
$DIMSD2
 70
     0
  9
$DIMTOLJ
 70
     1
  9
$DIMTZIN
 70
     0
  9
$DIMALTZ
 70
     0
  9
$DIMALTTZ
 70
     0
  9
$DIMUPT
 70
     0
  9
$DIMDEC
 70
     1
  9
$DIMTDEC
 70
     4
  9
$DIMALTU
 70
     2
  9
$DIMALTTD
 70
     2
  9
$DIMTXSTY
  7
Standard
  9
$DIMAUNIT
 70
     0
  9
$DIMADEC
 70
     0
  9
$DIMALTRND
 40
0.0
  9
$DIMAZIN
 70
     0
  9
$DIMDSEP
 70
     0
  9
$DIMATFIT
 70
     3
  9
$DIMFRAC
 70
     0
  9
$DIMLDRBLK
  1

  9
$DIMLUNIT
 70
     2
  9
$DIMLWD
 70
     0
  9
$DIMLWE
 70
     0
  9
$DIMTMOVE
 70
     0
  9
$LUNITS
 70
     2
  9
$LUPREC
 70
     4
  9
$SKETCHINC
 40
0.1
  9
$FILLETRAD
 40
0.0
  9
$AUNITS
 70
     0
  9
$AUPREC
 70
     0
  9
$MENU
  1
acad
  9
$ELEVATION
 40
0.0
  9
$PELEVATION
 40
0.0
  9
$THICKNESS
 40
0.0
  9
$LIMCHECK
 70
     0
  9
$CHAMFERA
 40
0.0
  9
$CHAMFERB
 40
0.0
  9
$CHAMFERC
 40
0.0
  9
$CHAMFERD
 40
0.0
  9
$SKPOLY
 70
     0
  9
$TDCREATE
 40
2456135.606134259
  9
$TDUCREATE
 40
0.000000000
  9
$TDUPDATE
 40
2456135.606134259
  9
$TDUUPDATE
 40
0.000000000
  9
$TDINDWG
 40
0.0000000000
  9
$TDUSRTIMER
 40
0.0000000000
  9
$USRTIMER
 70
     1
  9
$ANGBASE
 50
0.0
  9
$ANGDIR
 70
     0
  9
$PDMODE
 70
     0
  9
$PDSIZE
 40
0.0
  9
$PLINEWID
 40
0.0
  9
$SPLFRAME
 70
     0
  9
$SPLINETYPE
 70
     6
  9
$SPLINESEGS
 70
     8
  9
$HANDSEED
  5
4F8
  9
$SURFTAB1
 70
     6
  9
$SURFTAB2
 70
     6
  9
$SURFTYPE
 70
     6
  9
$SURFU
 70
     6
  9
$SURFV
 70
     6
  9
$UCSBASE
  2

  9
$UCSNAME
  2

  9
$UCSORG
 10
0.0
 20
0.0
 30
0.0
  9
$UCSXDIR
 10
1.0
 20
0.0
 30
0.0
  9
$UCSYDIR
 10
0.0
 20
1.0
 30
0.0
  9
$UCSORTHOREF
  2

  9
$UCSORTHOVIEW
 70
     0
  9
$UCSORGTOP
 10
0.0
 20
0.0
 30
0.0
  9
$UCSORGBOTTOM
 10
0.0
 20
0.0
 30
0.0
  9
$UCSORGLEFT
 10
0.0
 20
0.0
 30
0.0
  9
$UCSORGRIGHT
 10
0.0
 20
0.0
 30
0.0
  9
$UCSORGFRONT
 10
0.0
 20
0.0
 30
0.0
  9
$UCSORGBACK
 10
0.0
 20
0.0
 30
0.0
  9
$PUCSBASE
  2

  9
$PUCSNAME
  2

  9
$PUCSORG
 10
0.0
 20
0.0
 30
0.0
  9
$PUCSXDIR
 10
1.0
 20
0.0
 30
0.0
  9
$PUCSYDIR
 10
0.0
 20
1.0
 30
0.0
  9
$PUCSORTHOREF
  2

  9
$PUCSORTHOVIEW
 70
     0
  9
$PUCSORGTOP
 10
0.0
 20
0.0
 30
0.0
  9
$PUCSORGBOTTOM
 10
0.0
 20
0.0
 30
0.0
  9
$PUCSORGLEFT
 10
0.0
 20
0.0
 30
0.0
  9
$PUCSORGRIGHT
 10
0.0
 20
0.0
 30
0.0
  9
$PUCSORGFRONT
 10
0.0
 20
0.0
 30
0.0
  9
$PUCSORGBACK
 10
0.0
 20
0.0
 30
0.0
  9
$USERI1
 70
     0
  9
$USERI2
 70
     0
  9
$USERI3
 70
     0
  9
$USERI4
 70
     0
  9
$USERI5
 70
     0
  9
$USERR1
 40
0.0
  9
$USERR2
 40
0.0
  9
$USERR3
 40
0.0
  9
$USERR4
 40
0.0
  9
$USERR5
 40
0.0
  9
$WORLDVIEW
 70
     1
  9
$SHADEDGE
 70
     3
  9
$SHADEDIF
 70
    70
  9
$TILEMODE
 70
     1
  9
$MAXACTVP
 70
    16
  9
$PINSBASE
 10
0.0
 20
0.0
 30
0.0
  9
$PLIMCHECK
 70
     0
  9
$PEXTMIN
 10
0.0
 20
0.0
 30
0.0
  9
$PEXTMAX
 10
297.0
 20
210.0
 30
0.0
  9
$PLIMMIN
 10
0.0
 20
0.0
  9
$PLIMMAX
 10
297.0
 20
210.0
  9
$UNITMODE
 70
     0
  9
$VISRETAIN
 70
     0
  9
$PLINEGEN
 70
     1
  9
$PSLTSCALE
 70
     0
  9
$TREEDEPTH
 70
  3020
  9
$CMLSTYLE
  2
Standard
  9
$CMLJUST
 70
     0
  9
$CMLSCALE
 40
1.0
  9
$PROXYGRAPHICS
 70
     0
  9
$MEASUREMENT
 70
     0
  9
$CELWEIGHT
370
     0
  9
$ENDCAPS
280
     0
  9
$JOINSTYLE
280
     0
  9
$LWDISPLAY
290
     0
  9
$INSUNITS
 70
     0
  9
$HYPERLINKBASE
  1

  9
$XEDIT
290
     1
  9
$CEPSNTYPE
380
     0
  9
$PSTYLEMODE
290
     1
  9
$FINGERPRINTGUID
  2

  9
$VERSIONGUID
  2

  9
$EXTNAMES
290
     1
  9
$PSVPSCALE
 40
0.0
  0
ENDSEC
  0
SECTION
  2
CLASSES
  0
CLASS
  1
LWPOLYLINE
  2
AcDbPolyline
  3
AutoCAD 2000
 90
    32768
280
     0
281
     1
  0
CLASS
  1
IMAGE
  2
AcDbRasterImage
  3
ISM
 90
    32895
280
     0
281
     1
  0
CLASS
  1
OLE2FRAME
  2
AcDbOle2Frame
  3
AutoCAD 2000
 90
    32768
280
     0
281
     1
  0
CLASS
  1
HATCH
  2
AcDbHatch
  3
AutoCAD 2000
 90
    32768
280
     0
281
     1
  0
CLASS
  1
DICTIONARYVAR
  2
AcDbDictionaryVar
  3
AutoCAD 2000
 90
    32768
280
     0
281
     0
  0
CLASS
  1
RASTERVARIABLES
  2
AcDbRasterVariables
  3
ISM
 90
    32768
280
     0
281
     0
  0
CLASS
  1
IMAGEDEF
  2
AcDbRasterImageDef
  3
ISM
 90
    32768
280
     0
281
     0
  0
CLASS
  1
IMAGEDEF_REACTOR
  2
AcDbRasterImageDefReactor
  3
ISM
 90
    32769
280
     0
281
     0
  0
CLASS
  1
IDBUFFER
  2
AcDbIdBuffer
  3
AutoCAD 2000
 90
    32768
280
     0
281
     0
  0
CLASS
  1
SPATIAL_FILTER
  2
AcDbSpatialFilter
  3
AutoCAD 2000
 90
    32768
280
     0
281
     0
  0
CLASS
  1
XRECORD
  2
AcDbXrecord
  3
AutoCAD 2000
 90
    32768
280
     0
281
     0
  0
CLASS
  1
SORTENTSTABLE
  2
AcDbSortentsTable
  3
AutoCAD 2000
 90
    32768
280
     0
281
     0
  0
CLASS
  1
LAYER_INDEX
  2
AcDbLayerIndex
  3
AutoCAD 2000
 90
    32768
280
     0
281
     0
  0
CLASS
  1
SPATIAL_INDEX
  2
AcDbSpatialIndex
  3
AutoCAD 2000
 90
    32768
280
     0
281
     0
  0
CLASS
  1
OBJECT_PTR
  2
CAseDLPNTableRecord
  3
"ASE-LPNTableRecord"
 90
    32769
280
     0
281
     0
  0
CLASS
  1
LAYOUT
  2
AcDbLayout
  3
AutoCAD 2000
 90
        0
280
     0
281
     0
  0
CLASS
  1
PLOTSETTINGS
  2
AcDbPlotSettings
  3
AutoCAD 2000
 90
    32768
280
     0
281
     0
  0
CLASS
  1
ACDBDICTIONARYWDFLT
  2
AcDbDictionaryWithDefault
  3
AutoCAD 2000
 90
        0
280
     0
281
     0
  0
CLASS
  1
ACDBPLACEHOLDER
  2
AcDbPlaceHolder
  3
AutoCAD 2000
 90
        0
280
     0
281
     0
  0
CLASS
  1
VBA_PROJECT
  2
AcDbVbaProject
  3
acadvba
 90
    32768
280
     0
281
     0
  0
CLASS
  1
WIPEOUT
  2
AcDbWipeout
  3
WipeOut|AutoCAD Express Tool|expresstools@autodesk.com
 90
    32895
280
     0
281
     1
  0
CLASS
  1
WIPEOUTVARIABLES
  2
AcDbWipeoutVariables
  3
WipeOut|AutoCAD Express Tool|expresstools@autodesk.com
 90
        0
280
     0
281
     0
  0
CLASS
  1
RTEXT
  2
RText
  3
RText|AutoCAD Express Tool|expresstools@autodesk.com
 90
    32768
280
     0
281
     1
  0
CLASS
  1
ARCALIGNEDTEXT
  2
AcDbArcAlignedText
  3
ATEXT|AutoCAD Express Tool|expresstools@autodesk.com
 90
    32768
280
     0
281
     1
  0
ENDSEC
  0
SECTION
  2
TABLES
  0
TABLE
  2
VPORT
  5
7
100
AcDbSymbolTable
 70
     1
  0
VPORT
  5
15
100
AcDbSymbolTableRecord
100
AcDbViewportTableRecord
  2
*ACTIVE
 70
     0
 10
0.0
 20
0.0
 11
1.0
 21
1.0
 12
6.591288
 22
4.579184
 13
0.0
 23
0.0
 14
1.0
 24
1.0
 15
0.0
 25
0.0
 16
0.0
 26
0.0
 36
1.0
 17
0.0
 27
0.0
 37
0.0
 40
9.158369
 41
0.688564
 42
50.0
 43
0.0
 44
0.0
 50
0.0
 51
0.0
 71
     0
 72
   100
 73
     1
 74
     1
 75
     0
 76
     0
 77
     0
 78
     0
281
     0
 65
     0
110
0.0
120
0.0
130
0.0
111
1.0
121
0.0
131
0.0
112
0.0
122
1.0
132
0.0
345
0
346
0
 79
     0
146
0.0
  0
ENDTAB
  0
TABLE
  2
LTYPE
  5
4
100
AcDbSymbolTable
 70
     9
  0
LTYPE
  5
11
100
AcDbSymbolTableRecord
100
AcDbLinetypeTableRecord
  2
ByBlock
 70
    64
  3

 72
    65
 73
     0
 40
0.0
  0
LTYPE
  5
12
100
AcDbSymbolTableRecord
100
AcDbLinetypeTableRecord
  2
ByLayer
 70
    64
  3

 72
    65
 73
     0
 40
0.0
  0
LTYPE
  5
13
100
AcDbSymbolTableRecord
100
AcDbLinetypeTableRecord
  2
Continuous
 70
    64
  3
Solid line
 72
    65
 73
     0
 40
0.0
  0
LTYPE
  5
24
100
AcDbSymbolTableRecord
100
AcDbLinetypeTableRecord
  2
HIDDEN
 70
    64
  3
- - - - - - - - 
 72
    65
 73
     2
 40
12.6
 49
8.4
 74
     0
 49
-4.2
 74
     0
  0
LTYPE
  5
25
100
AcDbSymbolTableRecord
100
AcDbLinetypeTableRecord
  2
DOT
 70
    64
  3
･ ･ ･ ･ ･ ･ ･ ･ 
 72
    65
 73
     2
 40
8.0
 49
6.0
 74
     0
 49
-2.0
 74
     0
  0
LTYPE
  5
26
100
AcDbSymbolTableRecord
100
AcDbLinetypeTableRecord
  2
CENTER
 70
    64
  3
- ･ - ･ - ･ - ･ 
 72
    65
 73
     4
 40
50.5
 49
30.0
 74
     0
 49
-9.0
 74
     0
 49
2.5
 74
     0
 49
-9.0
 74
     0
  0
LTYPE
  5
27
100
AcDbSymbolTableRecord
100
AcDbLinetypeTableRecord
  2
PHANTOM
 70
    64
  3
- ･･ - ･･ - ･･ - ･･ 
 72
    65
 73
     6
 40
58.0
 49
30.0
 74
     0
 49
-9.0
 74
     0
 49
2.5
 74
     0
 49
-5.0
 74
     0
 49
2.5
 74
     0
 49
-9.0
 74
     0
  0
LTYPE
  5
28
100
AcDbSymbolTableRecord
100
AcDbLinetypeTableRecord
  2
ACAD_ISO06W100
 70
    64
  3
____ ... ____ ... ____
 72
    65
 73
     8
 40
37.5
 49
24.0
 74
     0
 49
-3.0
 74
     0
 49
0.5
 74
     0
 49
-3.0
 74
     0
 49
0.5
 74
     0
 49
-3.0
 74
     0
 49
0.5
 74
     0
 49
-3.0
 74
     0
  0
LTYPE
  5
29
100
AcDbSymbolTableRecord
100
AcDbLinetypeTableRecord
  2
ACAD_ISO14W100
 70
    64
  3
__ . . . __ . . . __ . . . 
 72
    65
 73
     8
 40
25.5
 49
12.0
 74
     0
 49
-3.0
 74
     0
 49
0.5
 74
     0
 49
-3.0
 74
     0
 49
0.5
 74
     0
 49
-3.0
 74
     0
 49
0.5
 74
     0
 49
-3.0
 74
     0
  0
ENDTAB
  0
TABLE
  2
LAYER
  5
2
100
AcDbSymbolTable
 70
   183
  0
LAYER
  5
14
100
AcDbSymbolTableRecord
100
AcDbLayerTableRecord
  2
0
 70
     0
 62
     7
  6
Continuous
290
     1
370
    -3
390
1D
  0
LAYER
  5
2A
100
AcDbSymbolTableRecord
100
AcDbLayerTableRecord
  2
1
 70
     0
 62
   142
  6
Continuous
290
     1
370
    -3
390
1F
  0
LAYER
  5
2B
100
AcDbSymbolTableRecord
100
AcDbLayerTableRecord
  2
2
 70
     0
 62
   174
  6
Continuous
290
     1
370
    -3
390
1F
  0
LAYER
  5
2C
100
AcDbSymbolTableRecord
100
AcDbLayerTableRecord
  2
3
 70
     0
 62
   171
  6
Continuous
290
     1
370
    -3
390
1F
  0
LAYER
  5
2D
100
AcDbSymbolTableRecord
100
AcDbLayerTableRecord
  2
4
 70
     0
 62
    54
  6
Continuous
290
     1
370
    -3
390
1F
  0
LAYER
  5
2E
100
AcDbSymbolTableRecord
100
AcDbLayerTableRecord
  2
5
 70
     0
 62
    11
  6
Continuous
290
     1
370
    -3
390
1F
  0
LAYER
  5
2F
100
AcDbSymbolTableRecord
100
AcDbLayerTableRecord
  2
6
 70
     0
 62
    14
  6
Continuous
290
     1
370
    -3
390
1F
  0
LAYER
  5
30
100
AcDbSymbolTableRecord
100
AcDbLayerTableRecord
  2
7
 70
     0
 62
   136
  6
Continuous
290
     1
370
    -3
390
1F
  0
LAYER
  5
31
100
AcDbSymbolTableRecord
100
AcDbLayerTableRecord
  2
8
 70
     0
 62
     6
  6
Continuous
290
     1
370
    -3
390
1F
  0
LAYER
  5
32
100
AcDbSymbolTableRecord
100
AcDbLayerTableRecord
  2
9
 70
     0
 62
   251
  6
Continuous
290
     1
370
    -3
390
1F
  0
LAYER
  5
33
100
AcDbSymbolTableRecord
100
AcDbLayerTableRecord
  2
10
 70
     0
 62
     3
  6
Continuous
290
     1
370
    -3
390
1F
  0
LAYER
  5
34
100
AcDbSymbolTableRecord
100
AcDbLayerTableRecord
  2
11
 70
     0
 62
   251
  6
Continuous
290
     1
370
    -3
390
1F
  0
LAYER
  5
35
100
AcDbSymbolTableRecord
100
AcDbLayerTableRecord
  2
12
 70
     0
 62
   136
  6
Continuous
290
     1
370
    -3
390
1F
  0
LAYER
  5
36
100
AcDbSymbolTableRecord
100
AcDbLayerTableRecord
  2
13
 70
     0
 62
   216
  6
Continuous
290
     1
370
    -3
390
1F
  0
LAYER
  5
37
100
AcDbSymbolTableRecord
100
AcDbLayerTableRecord
  2
14
 70
     0
 62
    56
  6
Continuous
290
     1
370
    -3
390
1F
  0
LAYER
  5
38
100
AcDbSymbolTableRecord
100
AcDbLayerTableRecord
  2
15
 70
     0
 62
    96
  6
Continuous
290
     1
370
    -3
390
1F
  0
LAYER
  5
39
100
AcDbSymbolTableRecord
100
AcDbLayerTableRecord
  2
16
 70
     0
 62
    16
  6
Continuous
290
     1
370
    -3
390
1F
  0
LAYER
  5
3A
100
AcDbSymbolTableRecord
100
AcDbLayerTableRecord
  2
17
 70
     0
 62
   132
  6
Continuous
290
     1
370
    -3
390
1F
  0
LAYER
  5
3B
100
AcDbSymbolTableRecord
100
AcDbLayerTableRecord
  2
18
 70
     0
 62
   212
  6
Continuous
290
     1
370
    -3
390
1F
  0
LAYER
  5
3C
100
AcDbSymbolTableRecord
100
AcDbLayerTableRecord
  2
19
 70
     0
 62
    52
  6
Continuous
290
     1
370
    -3
390
1F
  0
LAYER
  5
3D
100
AcDbSymbolTableRecord
100
AcDbLayerTableRecord
  2
20
 70
     0
 62
     6
  6
Continuous
290
     1
370
    -3
390
1F
  0
LAYER
  5
3E
100
AcDbSymbolTableRecord
100
AcDbLayerTableRecord
  2
21
 70
     0
 62
    30
  6
Continuous
290
     1
370
    -3
390
1F
  0
LAYER
  5
3F
100
AcDbSymbolTableRecord
100
AcDbLayerTableRecord
  2
22
 70
     0
 62
     4
  6
Continuous
290
     1
370
    -3
390
1F
  0
LAYER
  5
40
100
AcDbSymbolTableRecord
100
AcDbLayerTableRecord
  2
23
 70
     0
 62
     3
  6
Continuous
290
     1
370
    -3
390
1F
  0
LAYER
  5
41
100
AcDbSymbolTableRecord
100
AcDbLayerTableRecord
  2
24
 70
     0
 62
     6
  6
Continuous
290
     1
370
    -3
390
1F
  0
LAYER
  5
42
100
AcDbSymbolTableRecord
100
AcDbLayerTableRecord
  2
25
 70
     0
 62
     2
  6
Continuous
290
     1
370
    -3
390
1F
  0
LAYER
  5
43
100
AcDbSymbolTableRecord
100
AcDbLayerTableRecord
  2
26
 70
     0
 62
     7
  6
Continuous
290
     1
370
    -3
390
1F
  0
LAYER
  5
44
100
AcDbSymbolTableRecord
100
AcDbLayerTableRecord
  2
27
 70
     0
 62
     4
  6
Continuous
290
     1
370
    -3
390
1F
  0
LAYER
  5
45
100
AcDbSymbolTableRecord
100
AcDbLayerTableRecord
  2
28
 70
     0
 62
     3
  6
Continuous
290
     1
370
    -3
390
1F
  0
LAYER
  5
46
100
AcDbSymbolTableRecord
100
AcDbLayerTableRecord
  2
29
 70
     0
 62
     6
  6
Continuous
290
     1
370
    -3
390
1F
  0
LAYER
  5
47
100
AcDbSymbolTableRecord
100
AcDbLayerTableRecord
  2
30
 70
     0
 62
     2
  6
Continuous
290
     1
370
    -3
390
1F
  0
LAYER
  5
48
100
AcDbSymbolTableRecord
100
AcDbLayerTableRecord
  2
31
 70
     0
 62
     7
  6
Continuous
290
     1
370
    -3
390
1F
  0
LAYER
  5
49
100
AcDbSymbolTableRecord
100
AcDbLayerTableRecord
  2
32
 70
     0
 62
     4
  6
Continuous
290
     1
370
    -3
390
1F
  0
LAYER
  5
4A
100
AcDbSymbolTableRecord
100
AcDbLayerTableRecord
  2
33
 70
     0
 62
     3
  6
Continuous
290
     1
370
    -3
390
1F
  0
LAYER
  5
4B
100
AcDbSymbolTableRecord
100
AcDbLayerTableRecord
  2
34
 70
     0
 62
     6
  6
Continuous
290
     1
370
    -3
390
1F
  0
LAYER
  5
4C
100
AcDbSymbolTableRecord
100
AcDbLayerTableRecord
  2
35
 70
     0
 62
     2
  6
Continuous
290
     1
370
    -3
390
1F
  0
LAYER
  5
4D
100
AcDbSymbolTableRecord
100
AcDbLayerTableRecord
  2
36
 70
     0
 62
     7
  6
Continuous
290
     1
370
    -3
390
1F
  0
LAYER
  5
4E
100
AcDbSymbolTableRecord
100
AcDbLayerTableRecord
  2
37
 70
     0
 62
     4
  6
Continuous
290
     1
370
    -3
390
1F
  0
LAYER
  5
4F
100
AcDbSymbolTableRecord
100
AcDbLayerTableRecord
  2
38
 70
     0
 62
     3
  6
Continuous
290
     1
370
    -3
390
1F
  0
LAYER
  5
50
100
AcDbSymbolTableRecord
100
AcDbLayerTableRecord
  2
39
 70
     0
 62
     6
  6
Continuous
290
     1
370
    -3
390
1F
  0
LAYER
  5
51
100
AcDbSymbolTableRecord
100
AcDbLayerTableRecord
  2
40
 70
     0
 62
     2
  6
Continuous
290
     1
370
    -3
390
1F
  0
LAYER
  5
52
100
AcDbSymbolTableRecord
100
AcDbLayerTableRecord
  2
41
 70
     0
 62
     7
  6
Continuous
290
     1
370
    -3
390
1F
  0
LAYER
  5
53
100
AcDbSymbolTableRecord
100
AcDbLayerTableRecord
  2
42
 70
     0
 62
     4
  6
Continuous
290
     1
370
    -3
390
1F
  0
LAYER
  5
54
100
AcDbSymbolTableRecord
100
AcDbLayerTableRecord
  2
43
 70
     0
 62
     3
  6
Continuous
290
     1
370
    -3
390
1F
  0
LAYER
  5
55
100
AcDbSymbolTableRecord
100
AcDbLayerTableRecord
  2
44
 70
     0
 62
     6
  6
Continuous
290
     1
370
    -3
390
1F
  0
LAYER
  5
56
100
AcDbSymbolTableRecord
100
AcDbLayerTableRecord
  2
45
 70
     0
 62
     2
  6
Continuous
290
     1
370
    -3
390
1F
  0
LAYER
  5
57
100
AcDbSymbolTableRecord
100
AcDbLayerTableRecord
  2
46
 70
     0
 62
     7
  6
Continuous
290
     1
370
    -3
390
1F
  0
LAYER
  5
58
100
AcDbSymbolTableRecord
100
AcDbLayerTableRecord
  2
47
 70
     0
 62
     4
  6
Continuous
290
     1
370
    -3
390
1F
  0
LAYER
  5
59
100
AcDbSymbolTableRecord
100
AcDbLayerTableRecord
  2
48
 70
     0
 62
     3
  6
Continuous
290
     1
370
    -3
390
1F
  0
LAYER
  5
5A
100
AcDbSymbolTableRecord
100
AcDbLayerTableRecord
  2
49
 70
     0
 62
     6
  6
Continuous
290
     1
370
    -3
390
1F
  0
LAYER
  5
5B
100
AcDbSymbolTableRecord
100
AcDbLayerTableRecord
  2
50
 70
     0
 62
     2
  6
Continuous
290
     1
370
    -3
390
1F
  0
LAYER
  5
5C
100
AcDbSymbolTableRecord
100
AcDbLayerTableRecord
  2
51
 70
     0
 62
     7
  6
Continuous
290
     1
370
    -3
390
1F
  0
LAYER
  5
5D
100
AcDbSymbolTableRecord
100
AcDbLayerTableRecord
  2
52
 70
     0
 62
     4
  6
Continuous
290
     1
370
    -3
390
1F
  0
LAYER
  5
5E
100
AcDbSymbolTableRecord
100
AcDbLayerTableRecord
  2
53
 70
     0
 62
     3
  6
Continuous
290
     1
370
    -3
390
1F
  0
LAYER
  5
5F
100
AcDbSymbolTableRecord
100
AcDbLayerTableRecord
  2
54
 70
     0
 62
     6
  6
Continuous
290
     1
370
    -3
390
1F
  0
LAYER
  5
60
100
AcDbSymbolTableRecord
100
AcDbLayerTableRecord
  2
55
 70
     0
 62
     2
  6
Continuous
290
     1
370
    -3
390
1F
  0
LAYER
  5
61
100
AcDbSymbolTableRecord
100
AcDbLayerTableRecord
  2
56
 70
     0
 62
     7
  6
Continuous
290
     1
370
    -3
390
1F
  0
LAYER
  5
62
100
AcDbSymbolTableRecord
100
AcDbLayerTableRecord
  2
57
 70
     0
 62
     4
  6
Continuous
290
     1
370
    -3
390
1F
  0
LAYER
  5
63
100
AcDbSymbolTableRecord
100
AcDbLayerTableRecord
  2
58
 70
     0
 62
     3
  6
Continuous
290
     1
370
    -3
390
1F
  0
LAYER
  5
64
100
AcDbSymbolTableRecord
100
AcDbLayerTableRecord
  2
59
 70
     0
 62
     6
  6
Continuous
290
     1
370
    -3
390
1F
  0
LAYER
  5
65
100
AcDbSymbolTableRecord
100
AcDbLayerTableRecord
  2
60
 70
     0
 62
     2
  6
Continuous
290
     1
370
    -3
390
1F
  0
LAYER
  5
66
100
AcDbSymbolTableRecord
100
AcDbLayerTableRecord
  2
61
 70
     0
 62
     7
  6
Continuous
290
     1
370
    -3
390
1F
  0
LAYER
  5
67
100
AcDbSymbolTableRecord
100
AcDbLayerTableRecord
  2
62
 70
     0
 62
     4
  6
Continuous
290
     1
370
    -3
390
1F
  0
LAYER
  5
68
100
AcDbSymbolTableRecord
100
AcDbLayerTableRecord
  2
63
 70
     0
 62
     3
  6
Continuous
290
     1
370
    -3
390
1F
  0
LAYER
  5
69
100
AcDbSymbolTableRecord
100
AcDbLayerTableRecord
  2
64
 70
     0
 62
     6
  6
Continuous
290
     1
370
    -3
390
1F
  0
LAYER
  5
6A
100
AcDbSymbolTableRecord
100
AcDbLayerTableRecord
  2
65
 70
     0
 62
     2
  6
Continuous
290
     1
370
    -3
390
1F
  0
LAYER
  5
6B
100
AcDbSymbolTableRecord
100
AcDbLayerTableRecord
  2
66
 70
     0
 62
     7
  6
Continuous
290
     1
370
    -3
390
1F
  0
LAYER
  5
6C
100
AcDbSymbolTableRecord
100
AcDbLayerTableRecord
  2
67
 70
     0
 62
     4
  6
Continuous
290
     1
370
    -3
390
1F
  0
LAYER
  5
6D
100
AcDbSymbolTableRecord
100
AcDbLayerTableRecord
  2
68
 70
     0
 62
     3
  6
Continuous
290
     1
370
    -3
390
1F
  0
LAYER
  5
6E
100
AcDbSymbolTableRecord
100
AcDbLayerTableRecord
  2
69
 70
     0
 62
     6
  6
Continuous
290
     1
370
    -3
390
1F
  0
LAYER
  5
6F
100
AcDbSymbolTableRecord
100
AcDbLayerTableRecord
  2
70
 70
     0
 62
     2
  6
Continuous
290
     1
370
    -3
390
1F
  0
LAYER
  5
70
100
AcDbSymbolTableRecord
100
AcDbLayerTableRecord
  2
71
 70
     0
 62
     7
  6
Continuous
290
     1
370
    -3
390
1F
  0
LAYER
  5
71
100
AcDbSymbolTableRecord
100
AcDbLayerTableRecord
  2
72
 70
     0
 62
     4
  6
Continuous
290
     1
370
    -3
390
1F
  0
LAYER
  5
72
100
AcDbSymbolTableRecord
100
AcDbLayerTableRecord
  2
73
 70
     0
 62
     3
  6
Continuous
290
     1
370
    -3
390
1F
  0
LAYER
  5
73
100
AcDbSymbolTableRecord
100
AcDbLayerTableRecord
  2
74
 70
     0
 62
     6
  6
Continuous
290
     1
370
    -3
390
1F
  0
LAYER
  5
74
100
AcDbSymbolTableRecord
100
AcDbLayerTableRecord
  2
75
 70
     0
 62
     2
  6
Continuous
290
     1
370
    -3
390
1F
  0
LAYER
  5
75
100
AcDbSymbolTableRecord
100
AcDbLayerTableRecord
  2
76
 70
     0
 62
     7
  6
Continuous
290
     1
370
    -3
390
1F
  0
LAYER
  5
76
100
AcDbSymbolTableRecord
100
AcDbLayerTableRecord
  2
77
 70
     0
 62
     4
  6
Continuous
290
     1
370
    -3
390
1F
  0
LAYER
  5
77
100
AcDbSymbolTableRecord
100
AcDbLayerTableRecord
  2
78
 70
     0
 62
     3
  6
Continuous
290
     1
370
    -3
390
1F
  0
LAYER
  5
78
100
AcDbSymbolTableRecord
100
AcDbLayerTableRecord
  2
79
 70
     0
 62
     6
  6
Continuous
290
     1
370
    -3
390
1F
  0
LAYER
  5
79
100
AcDbSymbolTableRecord
100
AcDbLayerTableRecord
  2
80
 70
     0
 62
     2
  6
Continuous
290
     1
370
    -3
390
1F
  0
LAYER
  5
7A
100
AcDbSymbolTableRecord
100
AcDbLayerTableRecord
  2
81
 70
     0
 62
     7
  6
Continuous
290
     1
370
    -3
390
1F
  0
LAYER
  5
7B
100
AcDbSymbolTableRecord
100
AcDbLayerTableRecord
  2
82
 70
     0
 62
     4
  6
Continuous
290
     1
370
    -3
390
1F
  0
LAYER
  5
7C
100
AcDbSymbolTableRecord
100
AcDbLayerTableRecord
  2
83
 70
     0
 62
     3
  6
Continuous
290
     1
370
    -3
390
1F
  0
LAYER
  5
7D
100
AcDbSymbolTableRecord
100
AcDbLayerTableRecord
  2
84
 70
     0
 62
     6
  6
Continuous
290
     1
370
    -3
390
1F
  0
LAYER
  5
7E
100
AcDbSymbolTableRecord
100
AcDbLayerTableRecord
  2
85
 70
     0
 62
     2
  6
Continuous
290
     1
370
    -3
390
1F
  0
LAYER
  5
7F
100
AcDbSymbolTableRecord
100
AcDbLayerTableRecord
  2
86
 70
     0
 62
     7
  6
Continuous
290
     1
370
    -3
390
1F
  0
LAYER
  5
80
100
AcDbSymbolTableRecord
100
AcDbLayerTableRecord
  2
87
 70
     0
 62
     4
  6
Continuous
290
     1
370
    -3
390
1F
  0
LAYER
  5
81
100
AcDbSymbolTableRecord
100
AcDbLayerTableRecord
  2
88
 70
     0
 62
     3
  6
Continuous
290
     1
370
    -3
390
1F
  0
LAYER
  5
82
100
AcDbSymbolTableRecord
100
AcDbLayerTableRecord
  2
89
 70
     0
 62
     6
  6
Continuous
290
     1
370
    -3
390
1F
  0
LAYER
  5
83
100
AcDbSymbolTableRecord
100
AcDbLayerTableRecord
  2
90
 70
     0
 62
     2
  6
Continuous
290
     1
370
    -3
390
1F
  0
LAYER
  5
84
100
AcDbSymbolTableRecord
100
AcDbLayerTableRecord
  2
91
 70
     0
 62
     7
  6
Continuous
290
     1
370
    -3
390
1F
  0
LAYER
  5
85
100
AcDbSymbolTableRecord
100
AcDbLayerTableRecord
  2
92
 70
     0
 62
     4
  6
Continuous
290
     1
370
    -3
390
1F
  0
LAYER
  5
86
100
AcDbSymbolTableRecord
100
AcDbLayerTableRecord
  2
93
 70
     0
 62
     3
  6
Continuous
290
     1
370
    -3
390
1F
  0
LAYER
  5
87
100
AcDbSymbolTableRecord
100
AcDbLayerTableRecord
  2
94
 70
     0
 62
     6
  6
Continuous
290
     1
370
    -3
390
1F
  0
LAYER
  5
88
100
AcDbSymbolTableRecord
100
AcDbLayerTableRecord
  2
95
 70
     0
 62
     2
  6
Continuous
290
     1
370
    -3
390
1F
  0
LAYER
  5
89
100
AcDbSymbolTableRecord
100
AcDbLayerTableRecord
  2
96
 70
     0
 62
     7
  6
Continuous
290
     1
370
    -3
390
1F
  0
LAYER
  5
8A
100
AcDbSymbolTableRecord
100
AcDbLayerTableRecord
  2
97
 70
     0
 62
     4
  6
Continuous
290
     1
370
    -3
390
1F
  0
LAYER
  5
8B
100
AcDbSymbolTableRecord
100
AcDbLayerTableRecord
  2
98
 70
     0
 62
     3
  6
Continuous
290
     1
370
    -3
390
1F
  0
LAYER
  5
8C
100
AcDbSymbolTableRecord
100
AcDbLayerTableRecord
  2
99
 70
     0
 62
     6
  6
Continuous
290
     1
370
    -3
390
1F
  0
LAYER
  5
8D
100
AcDbSymbolTableRecord
100
AcDbLayerTableRecord
  2
100
 70
     0
 62
     2
  6
Continuous
290
     1
370
    -3
390
1F
  0
LAYER
  5
8E
100
AcDbSymbolTableRecord
100
AcDbLayerTableRecord
  2
101
 70
     0
 62
     7
  6
Continuous
290
     1
370
    -3
390
1F
  0
LAYER
  5
8F
100
AcDbSymbolTableRecord
100
AcDbLayerTableRecord
  2
102
 70
     0
 62
     4
  6
Continuous
290
     1
370
    -3
390
1F
  0
LAYER
  5
90
100
AcDbSymbolTableRecord
100
AcDbLayerTableRecord
  2
103
 70
     0
 62
     3
  6
Continuous
290
     1
370
    -3
390
1F
  0
LAYER
  5
91
100
AcDbSymbolTableRecord
100
AcDbLayerTableRecord
  2
104
 70
     0
 62
     6
  6
Continuous
290
     1
370
    -3
390
1F
  0
LAYER
  5
92
100
AcDbSymbolTableRecord
100
AcDbLayerTableRecord
  2
105
 70
     0
 62
     2
  6
Continuous
290
     1
370
    -3
390
1F
  0
LAYER
  5
93
100
AcDbSymbolTableRecord
100
AcDbLayerTableRecord
  2
106
 70
     0
 62
     7
  6
Continuous
290
     1
370
    -3
390
1F
  0
LAYER
  5
94
100
AcDbSymbolTableRecord
100
AcDbLayerTableRecord
  2
107
 70
     0
 62
     4
  6
Continuous
290
     1
370
    -3
390
1F
  0
LAYER
  5
95
100
AcDbSymbolTableRecord
100
AcDbLayerTableRecord
  2
108
 70
     0
 62
     3
  6
Continuous
290
     1
370
    -3
390
1F
  0
LAYER
  5
96
100
AcDbSymbolTableRecord
100
AcDbLayerTableRecord
  2
109
 70
     0
 62
     6
  6
Continuous
290
     1
370
    -3
390
1F
  0
LAYER
  5
97
100
AcDbSymbolTableRecord
100
AcDbLayerTableRecord
  2
110
 70
     0
 62
     2
  6
Continuous
290
     1
370
    -3
390
1F
  0
LAYER
  5
98
100
AcDbSymbolTableRecord
100
AcDbLayerTableRecord
  2
111
 70
     0
 62
     7
  6
Continuous
290
     1
370
    -3
390
1F
  0
LAYER
  5
99
100
AcDbSymbolTableRecord
100
AcDbLayerTableRecord
  2
112
 70
     0
 62
     4
  6
Continuous
290
     1
370
    -3
390
1F
  0
LAYER
  5
9A
100
AcDbSymbolTableRecord
100
AcDbLayerTableRecord
  2
113
 70
     0
 62
     3
  6
Continuous
290
     1
370
    -3
390
1F
  0
LAYER
  5
9B
100
AcDbSymbolTableRecord
100
AcDbLayerTableRecord
  2
114
 70
     0
 62
     6
  6
Continuous
290
     1
370
    -3
390
1F
  0
LAYER
  5
9C
100
AcDbSymbolTableRecord
100
AcDbLayerTableRecord
  2
115
 70
     0
 62
     2
  6
Continuous
290
     1
370
    -3
390
1F
  0
LAYER
  5
9D
100
AcDbSymbolTableRecord
100
AcDbLayerTableRecord
  2
116
 70
     0
 62
     7
  6
Continuous
290
     1
370
    -3
390
1F
  0
LAYER
  5
9E
100
AcDbSymbolTableRecord
100
AcDbLayerTableRecord
  2
117
 70
     0
 62
     4
  6
Continuous
290
     1
370
    -3
390
1F
  0
LAYER
  5
9F
100
AcDbSymbolTableRecord
100
AcDbLayerTableRecord
  2
118
 70
     0
 62
     3
  6
Continuous
290
     1
370
    -3
390
1F
  0
LAYER
  5
A0
100
AcDbSymbolTableRecord
100
AcDbLayerTableRecord
  2
119
 70
     0
 62
     6
  6
Continuous
290
     1
370
    -3
390
1F
  0
LAYER
  5
A1
100
AcDbSymbolTableRecord
100
AcDbLayerTableRecord
  2
120
 70
     0
 62
     2
  6
Continuous
290
     1
370
    -3
390
1F
  0
LAYER
  5
A2
100
AcDbSymbolTableRecord
100
AcDbLayerTableRecord
  2
121
 70
     0
 62
     7
  6
Continuous
290
     1
370
    -3
390
1F
  0
LAYER
  5
A3
100
AcDbSymbolTableRecord
100
AcDbLayerTableRecord
  2
122
 70
     0
 62
     4
  6
Continuous
290
     1
370
    -3
390
1F
  0
LAYER
  5
A4
100
AcDbSymbolTableRecord
100
AcDbLayerTableRecord
  2
123
 70
     0
 62
     3
  6
Continuous
290
     1
370
    -3
390
1F
  0
LAYER
  5
A5
100
AcDbSymbolTableRecord
100
AcDbLayerTableRecord
  2
124
 70
     0
 62
     6
  6
Continuous
290
     1
370
    -3
390
1F
  0
LAYER
  5
A6
100
AcDbSymbolTableRecord
100
AcDbLayerTableRecord
  2
125
 70
     0
 62
     2
  6
Continuous
290
     1
370
    -3
390
1F
  0
LAYER
  5
A7
100
AcDbSymbolTableRecord
100
AcDbLayerTableRecord
  2
126
 70
     0
 62
     7
  6
Continuous
290
     1
370
    -3
390
1F
  0
LAYER
  5
A8
100
AcDbSymbolTableRecord
100
AcDbLayerTableRecord
  2
127
 70
     0
 62
    30
  6
Continuous
290
     1
370
    -3
390
1F
  0
LAYER
  5
A9
100
AcDbSymbolTableRecord
100
AcDbLayerTableRecord
  2
128
 70
     0
 62
     7
  6
Continuous
290
     1
370
    -3
390
1F
  0
LAYER
  5
AA
100
AcDbSymbolTableRecord
100
AcDbLayerTableRecord
  2
129
 70
     0
 62
     7
  6
Continuous
290
     1
370
    -3
390
1F
  0
LAYER
  5
AB
100
AcDbSymbolTableRecord
100
AcDbLayerTableRecord
  2
130
 70
     0
 62
     6
  6
Continuous
290
     1
370
    -3
390
1F
  0
LAYER
  5
AC
100
AcDbSymbolTableRecord
100
AcDbLayerTableRecord
  2
131
 70
     0
 62
     7
  6
Continuous
290
     1
370
    -3
390
1F
  0
LAYER
  5
AD
100
AcDbSymbolTableRecord
100
AcDbLayerTableRecord
  2
132
 70
     0
 62
     7
  6
Continuous
290
     1
370
    -3
390
1F
  0
LAYER
  5
AE
100
AcDbSymbolTableRecord
100
AcDbLayerTableRecord
  2
133
 70
     0
 62
     5
  6
Continuous
290
     1
370
    -3
390
1F
  0
LAYER
  5
AF
100
AcDbSymbolTableRecord
100
AcDbLayerTableRecord
  2
134
 70
     0
 62
    12
  6
Continuous
290
     1
370
    -3
390
1F
  0
LAYER
  5
B0
100
AcDbSymbolTableRecord
100
AcDbLayerTableRecord
  2
135
 70
     0
 62
     1
  6
Continuous
290
     1
370
    -3
390
1F
  0
LAYER
  5
B1
100
AcDbSymbolTableRecord
100
AcDbLayerTableRecord
  2
136
 70
     0
 62
     7
  6
Continuous
290
     1
370
    -3
390
1F
  0
LAYER
  5
B2
100
AcDbSymbolTableRecord
100
AcDbLayerTableRecord
  2
137
 70
     0
 62
     4
  6
Continuous
290
     1
370
    -3
390
1F
  0
LAYER
  5
B3
100
AcDbSymbolTableRecord
100
AcDbLayerTableRecord
  2
209
 70
     0
 62
    94
  6
Continuous
290
     1
370
    -3
390
1F
  0
LAYER
  5
B4
100
AcDbSymbolTableRecord
100
AcDbLayerTableRecord
  2
232
 70
     0
 62
     7
  6
Continuous
290
     1
370
    -3
390
1F
  0
LAYER
  5
B5
100
AcDbSymbolTableRecord
100
AcDbLayerTableRecord
  2
233
 70
     0
 62
     7
  6
Continuous
290
     1
370
    -3
390
1F
  0
LAYER
  5
B6
100
AcDbSymbolTableRecord
100
AcDbLayerTableRecord
  2
234
 70
     0
 62
     7
  6
Continuous
290
     1
370
    -3
390
1F
  0
LAYER
  5
B7
100
AcDbSymbolTableRecord
100
AcDbLayerTableRecord
  2
235
 70
     0
 62
     7
  6
Continuous
290
     1
370
    -3
390
1F
  0
LAYER
  5
B8
100
AcDbSymbolTableRecord
100
AcDbLayerTableRecord
  2
236
 70
     0
 62
     7
  6
Continuous
290
     1
370
    -3
390
1F
  0
LAYER
  5
B9
100
AcDbSymbolTableRecord
100
AcDbLayerTableRecord
  2
237
 70
     0
 62
     7
  6
Continuous
290
     1
370
    -3
390
1F
  0
LAYER
  5
BA
100
AcDbSymbolTableRecord
100
AcDbLayerTableRecord
  2
1000
 70
     0
 62
     6
  6
Continuous
290
     1
370
    -3
390
1F
  0
LAYER
  5
BB
100
AcDbSymbolTableRecord
100
AcDbLayerTableRecord
  2
1001
 70
     0
 62
     7
  6
Continuous
290
     1
370
    -3
390
1F
  0
LAYER
  5
BC
100
AcDbSymbolTableRecord
100
AcDbLayerTableRecord
  2
11001
 70
     0
 62
     7
  6
Continuous
290
     1
370
    -3
390
1F
  0
LAYER
  5
BD
100
AcDbSymbolTableRecord
100
AcDbLayerTableRecord
  2
50103000
 70
     0
 62
     7
  6
Continuous
290
     1
370
    -3
390
1F
  0
LAYER
  5
BE
100
AcDbSymbolTableRecord
100
AcDbLayerTableRecord
  2
50103001
 70
     0
 62
     7
  6
Continuous
290
     1
370
    -3
390
1F
  0
LAYER
  5
BF
100
AcDbSymbolTableRecord
100
AcDbLayerTableRecord
  2
50103002
 70
     0
 62
     2
  6
Continuous
290
     1
370
    -3
390
1F
  0
LAYER
  5
C0
100
AcDbSymbolTableRecord
100
AcDbLayerTableRecord
  2
50103003
 70
     0
 62
     1
  6
Continuous
290
     1
370
    -3
390
1F
  0
LAYER
  5
C1
100
AcDbSymbolTableRecord
100
AcDbLayerTableRecord
  2
50103004
 70
     0
 62
     2
  6
Continuous
290
     1
370
    -3
390
1F
  0
LAYER
  5
C2
100
AcDbSymbolTableRecord
100
AcDbLayerTableRecord
  2
50103006
 70
     0
 62
     3
  6
Continuous
290
     1
370
    -3
390
1F
  0
LAYER
  5
C3
100
AcDbSymbolTableRecord
100
AcDbLayerTableRecord
  2
50103007
 70
     0
 62
     4
  6
Continuous
290
     1
370
    -3
390
1F
  0
LAYER
  5
C4
100
AcDbSymbolTableRecord
100
AcDbLayerTableRecord
  2
50103008
 70
     0
 62
     7
  6
Continuous
290
     1
370
    -3
390
1F
  0
LAYER
  5
C5
100
AcDbSymbolTableRecord
100
AcDbLayerTableRecord
  2
50103011
 70
     0
 62
     5
  6
Continuous
290
     1
370
    -3
390
1F
  0
LAYER
  5
C6
100
AcDbSymbolTableRecord
100
AcDbLayerTableRecord
  2
50103012
 70
     0
 62
     7
  6
Continuous
290
     1
370
    -3
390
1F
  0
LAYER
  5
C7
100
AcDbSymbolTableRecord
100
AcDbLayerTableRecord
  2
50103013
 70
     0
 62
     7
  6
Continuous
290
     1
370
    -3
390
1F
  0
LAYER
  5
C8
100
AcDbSymbolTableRecord
100
AcDbLayerTableRecord
  2
50103014
 70
     0
 62
     7
  6
Continuous
290
     1
370
    -3
390
1F
  0
LAYER
  5
C9
100
AcDbSymbolTableRecord
100
AcDbLayerTableRecord
  2
50103015
 70
     0
 62
     1
  6
Continuous
290
     1
370
    -3
390
1F
  0
LAYER
  5
CA
100
AcDbSymbolTableRecord
100
AcDbLayerTableRecord
  2
50103016
 70
     0
 62
     3
  6
Continuous
290
     1
370
    -3
390
1F
  0
LAYER
  5
CB
100
AcDbSymbolTableRecord
100
AcDbLayerTableRecord
  2
50103017
 70
     0
 62
     6
  6
Continuous
290
     1
370
    -3
390
1F
  0
LAYER
  5
CC
100
AcDbSymbolTableRecord
100
AcDbLayerTableRecord
  2
50103018
 70
     0
 62
     2
  6
Continuous
290
     1
370
    -3
390
1F
  0
LAYER
  5
CD
100
AcDbSymbolTableRecord
100
AcDbLayerTableRecord
  2
50103019
 70
     0
 62
     5
  6
Continuous
290
     1
370
    -3
390
1F
  0
LAYER
  5
CE
100
AcDbSymbolTableRecord
100
AcDbLayerTableRecord
  2
50103020
 70
     0
 62
     4
  6
Continuous
290
     1
370
    -3
390
1F
  0
LAYER
  5
CF
100
AcDbSymbolTableRecord
100
AcDbLayerTableRecord
  2
50103021
 70
     0
 62
     3
  6
Continuous
290
     1
370
    -3
390
1F
  0
LAYER
  5
D0
100
AcDbSymbolTableRecord
100
AcDbLayerTableRecord
  2
50103022
 70
     0
 62
     6
  6
Continuous
290
     1
370
    -3
390
1F
  0
LAYER
  5
D1
100
AcDbSymbolTableRecord
100
AcDbLayerTableRecord
  2
50103023
 70
     0
 62
     2
  6
Continuous
290
     1
370
    -3
390
1F
  0
LAYER
  5
D2
100
AcDbSymbolTableRecord
100
AcDbLayerTableRecord
  2
50103024
 70
     0
 62
     7
  6
Continuous
290
     1
370
    -3
390
1F
  0
LAYER
  5
D3
100
AcDbSymbolTableRecord
100
AcDbLayerTableRecord
  2
50103025
 70
     0
 62
     4
  6
Continuous
290
     1
370
    -3
390
1F
  0
LAYER
  5
D4
100
AcDbSymbolTableRecord
100
AcDbLayerTableRecord
  2
50103026
 70
     0
 62
     3
  6
Continuous
290
     1
370
    -3
390
1F
  0
LAYER
  5
D5
100
AcDbSymbolTableRecord
100
AcDbLayerTableRecord
  2
50103027
 70
     0
 62
     6
  6
Continuous
290
     1
370
    -3
390
1F
  0
LAYER
  5
D6
100
AcDbSymbolTableRecord
100
AcDbLayerTableRecord
  2
50103028
 70
     0
 62
     2
  6
Continuous
290
     1
370
    -3
390
1F
  0
LAYER
  5
D7
100
AcDbSymbolTableRecord
100
AcDbLayerTableRecord
  2
50103029
 70
     0
 62
     7
  6
Continuous
290
     1
370
    -3
390
1F
  0
LAYER
  5
D8
100
AcDbSymbolTableRecord
100
AcDbLayerTableRecord
  2
50103030
 70
     0
 62
     4
  6
Continuous
290
     1
370
    -3
390
1F
  0
LAYER
  5
D9
100
AcDbSymbolTableRecord
100
AcDbLayerTableRecord
  2
50103031
 70
     0
 62
     3
  6
Continuous
290
     1
370
    -3
390
1F
  0
LAYER
  5
DA
100
AcDbSymbolTableRecord
100
AcDbLayerTableRecord
  2
50103032
 70
     0
 62
     6
  6
Continuous
290
     1
370
    -3
390
1F
  0
LAYER
  5
DB
100
AcDbSymbolTableRecord
100
AcDbLayerTableRecord
  2
50103033
 70
     0
 62
     2
  6
Continuous
290
     1
370
    -3
390
1F
  0
LAYER
  5
DC
100
AcDbSymbolTableRecord
100
AcDbLayerTableRecord
  2
50103034
 70
     0
 62
     7
  6
Continuous
290
     1
370
    -3
390
1F
  0
LAYER
  5
DD
100
AcDbSymbolTableRecord
100
AcDbLayerTableRecord
  2
50103035
 70
     0
 62
     7
  6
Continuous
290
     1
370
    -3
390
1F
  0
LAYER
  5
DE
100
AcDbSymbolTableRecord
100
AcDbLayerTableRecord
  2
50103036
 70
     0
 62
     7
  6
Continuous
290
     1
370
    -3
390
1F
  0
LAYER
  5
DF
100
AcDbSymbolTableRecord
100
AcDbLayerTableRecord
  2
50103037
 70
     0
 62
     7
  6
Continuous
290
     1
370
    -3
390
1F
  0
ENDTAB
  0
TABLE
  2
STYLE
  5
3
100
AcDbSymbolTable
 70
     1
  0
STYLE
  5
17
100
AcDbSymbolTableRecord
100
AcDbTextStyleTableRecord
  2
Standard
 70
     0
 40
0.0
 41
1.0
 50
0.0
 71
     0
 42
0.0
  3
txt
  4
bigfont
  0
ENDTAB
  0
TABLE
  2
VIEW
  5
5
100
AcDbSymbolTable
 70
     0
  0
ENDTAB
  0
TABLE
  2
UCS
  5
6
100
AcDbSymbolTable
 70
     0
  0
ENDTAB
  0
TABLE
  2
APPID
  5
8
100
AcDbSymbolTable
 70
     1
  0
APPID
  5
16
100
AcDbSymbolTableRecord
100
AcDbRegAppTableRecord
  2
ACAD
 70
     0
  0
ENDTAB
  0
TABLE
  2
DIMSTYLE
  5
9
100
AcDbSymbolTable
 70
     1
100
AcDbDimStyleTable
 71
     0
  0
DIMSTYLE
105
18
100
AcDbSymbolTableRecord
100
AcDbDimStyleTableRecord
  2
Standard
 70
     0
  3

  4

 40
1.0
 41
0.18
 42
0.0625
 43
0.38
 44
0.18
 45
0.0
 46
0.0
 47
0.0
 48
0.0
 71
     0
 72
     0
 73
     1
 74
     1
 75
     0
 76
     0
 77
     0
 78
     0
 79
     0
140
0.18
141
0.09
142
0.0
143
25.4
144
1.0
145
0.0
146
1.0
147
0.09
148
0.0
170
     0
171
     2
172
     0
173
     0
174
     0
175
     0
176
     0
177
     0
178
     0
179
     0
271
     4
272
     4
273
     2
274
     2
275
     0
276
     0
277
     2
278
    46
279
     0
280
     0
281
     0
282
     0
283
     1
284
     0
285
     0
286
     0
288
     0
340
17
341
0
342
0
343
0
344
0
371
    -2
372
    -2
  0
ENDTAB
  0
TABLE
  2
BLOCK_RECORD
  5
1
100
AcDbSymbolTable
 70
     0
  0
BLOCK_RECORD
  5
A
100
AcDbSymbolTableRecord
100
AcDbBlockTableRecord
  2
*MODEL_SPACE
340
20
  0
BLOCK_RECORD
  5
B
100
AcDbSymbolTableRecord
100
AcDbBlockTableRecord
  2
*PAPER_SPACE
340
21
  0
ENDTAB
  0
ENDSEC
  0
SECTION
  2
BLOCKS
  0
BLOCK
  5
D
100
AcDbEntity
  8
0
100
AcDbBlockBegin
  2
*MODEL_SPACE
 70
     0
 10
0.0
 20
0.0
 30
0.0
  3
*MODEL_SPACE
  1

  0
ENDBLK
  5
E
100
AcDbEntity
  8
0
100
AcDbBlockEnd
  0
BLOCK
  5
F
100
AcDbEntity
 67
     1
  8
0
100
AcDbBlockBegin
  2
*PAPER_SPACE
 70
     0
 10
0.0
 20
0.0
 30
0.0
  3
*PAPER_SPACE
  1

  0
ENDBLK
  5
10
100
AcDbEntity
 67
     1
  8
0
100
AcDbBlockEnd
  0
ENDSEC
  0
SECTION
  2
ENTITIES
  0
LINE
  5
E0
100
AcDbEntity
  8
2
  6
CENTER
 62
   174
100
AcDbLine
 10
200.0
 20
290.0
 30
0.0
 11
200.0
 21
807.0
 31
0.0
  0
LINE
  5
E1
100
AcDbEntity
  8
2
  6
Continuous
 62
   174
100
AcDbLine
 10
109.346433
 20
653.270993
 30
0.0
 11
200.0
 21
653.270993
 31
0.0
  0
LINE
  5
E2
100
AcDbEntity
  8
2
  6
Continuous
 62
   174
100
AcDbLine
 10
117.5
 20
645.073295
 30
0.0
 11
200.0
 21
645.073295
 31
0.0
  0
LINE
  5
E3
100
AcDbEntity
  8
2
  6
Continuous
 62
   174
100
AcDbLine
 10
117.5
 20
645.073295
 30
0.0
 11
109.346433
 21
653.270993
 31
0.0
  0
LINE
  5
E4
100
AcDbEntity
  8
2
  6
Continuous
 62
   174
100
AcDbLine
 10
107.749444
 20
797.0
 30
0.0
 11
109.346433
 21
653.270993
 31
0.0
  0
LINE
  5
E5
100
AcDbEntity
  8
2
  6
Continuous
 62
   174
100
AcDbLine
 10
117.5
 20
450.0
 30
0.0
 11
117.5
 21
300.0
 31
0.0
  0
LINE
  5
E6
100
AcDbEntity
  8
2
  6
Continuous
 62
   174
100
AcDbLine
 10
117.5
 20
632.0
 30
0.0
 11
117.5
 21
645.073295
 31
0.0
  0
LINE
  5
E7
100
AcDbEntity
  8
2
  6
Continuous
 62
   174
100
AcDbLine
 10
417.5
 20
450.0
 30
0.0
 11
417.5
 21
300.0
 31
0.0
  0
LINE
  5
E8
100
AcDbEntity
  8
2
  6
CENTER
 62
   174
100
AcDbLine
 10
500.0
 20
290.0
 30
0.0
 11
500.0
 21
832.0
 31
0.0
  0
LINE
  5
E9
100
AcDbEntity
  8
2
  6
Continuous
 62
   174
100
AcDbLine
 10
409.346433
 20
678.270993
 30
0.0
 11
500.0
 21
678.270993
 31
0.0
  0
LINE
  5
EA
100
AcDbEntity
  8
2
  6
Continuous
 62
   174
100
AcDbLine
 10
417.5
 20
670.073295
 30
0.0
 11
500.0
 21
670.073295
 31
0.0
  0
LINE
  5
EB
100
AcDbEntity
  8
2
  6
Continuous
 62
   174
100
AcDbLine
 10
417.5
 20
670.073295
 30
0.0
 11
409.346433
 21
678.270993
 31
0.0
  0
LINE
  5
EC
100
AcDbEntity
  8
2
  6
Continuous
 62
   174
100
AcDbLine
 10
407.749444
 20
822.0
 30
0.0
 11
409.346433
 21
678.270993
 31
0.0
  0
LINE
  5
ED
100
AcDbEntity
  8
2
  6
Continuous
 62
   174
100
AcDbLine
 10
417.5
 20
657.0
 30
0.0
 11
417.5
 21
670.073295
 31
0.0
  0
LINE
  5
EE
100
AcDbEntity
  8
2
  6
Continuous
 62
   174
100
AcDbLine
 10
110.55
 20
582.0
 30
0.0
 11
110.55
 21
632.0
 31
0.0
  0
LINE
  5
EF
100
AcDbEntity
  8
2
  6
Continuous
 62
   174
100
AcDbLine
 10
110.55
 20
632.0
 30
0.0
 11
200.0
 21
632.0
 31
0.0
  0
LINE
  5
F0
100
AcDbEntity
  8
2
  6
Continuous
 62
   174
100
AcDbLine
 10
110.55
 20
582.0
 30
0.0
 11
200.0
 21
582.0
 31
0.0
  0
LINE
  5
F1
100
AcDbEntity
  8
2
  6
Continuous
 62
   174
100
AcDbLine
 10
111.2
 20
500.0
 30
0.0
 11
111.2
 21
450.0
 31
0.0
  0
LINE
  5
F2
100
AcDbEntity
  8
2
  6
Continuous
 62
   174
100
AcDbLine
 10
111.2
 20
500.0
 30
0.0
 11
200.0
 21
500.0
 31
0.0
  0
LINE
  5
F3
100
AcDbEntity
  8
2
  6
Continuous
 62
   174
100
AcDbLine
 10
111.2
 20
450.0
 30
0.0
 11
200.0
 21
450.0
 31
0.0
  0
LINE
  5
F4
100
AcDbEntity
  8
2
  6
Continuous
 62
   174
100
AcDbLine
 10
115.096402
 20
581.013287
 30
0.0
 11
107.43867
 21
574.444486
 31
0.0
  0
ARC
  5
F5
100
AcDbEntity
  8
2
  6
Continuous
 62
   174
100
AcDbCircle
 10
114.25
 20
582.0
 30
0.0
 40
1.3
100
AcDbArc
 50
-49.377015
 51
0.0
  0
ARC
  5
F6
100
AcDbEntity
  8
2
  6
Continuous
 62
   174
100
AcDbCircle
 10
109.75
 20
571.75
 30
0.0
 40
3.55
100
AcDbArc
 50
130.622985
 51
-123.427935
  0
ARC
  5
F7
100
AcDbEntity
  8
2
  6
Continuous
 62
   174
100
AcDbCircle
 10
109.75
 20
551.25
 30
0.0
 40
3.55
100
AcDbArc
 50
123.427935
 51
-123.427149
  0
ARC
  5
F8
100
AcDbEntity
  8
2
  6
Continuous
 62
   174
100
AcDbCircle
 10
109.75
 20
530.75
 30
0.0
 40
3.55
100
AcDbArc
 50
123.427149
 51
-123.427935
  0
LINE
  5
F9
100
AcDbEntity
  8
2
  6
Continuous
 62
   174
100
AcDbLine
 10
107.549223
 20
507.464488
 30
0.0
 11
115.705918
 21
501.020047
 31
0.0
  0
ARC
  5
FA
100
AcDbEntity
  8
2
  6
Continuous
 62
   174
100
AcDbCircle
 10
114.9
 20
500.0
 30
0.0
 40
1.3
100
AcDbArc
 50
0.0
 51
51.831051
  0
ARC
  5
FB
100
AcDbEntity
  8
2
  6
Continuous
 62
   174
100
AcDbCircle
 10
109.75
 20
510.25
 30
0.0
 40
3.55
100
AcDbArc
 50
123.427935
 51
-128.3112
  0
LINE
  5
FC
100
AcDbEntity
  8
2
  6
Continuous
 62
   174
100
AcDbLine
 10
109.75
 20
571.75
 30
0.0
 11
200.0
 21
571.75
 31
0.0
  0
LINE
  5
FD
100
AcDbEntity
  8
2
  6
Continuous
 62
   174
100
AcDbLine
 10
114.75
 20
563.75
 30
0.0
 11
200.0
 21
563.75
 31
0.0
  0
LINE
  5
FE
100
AcDbEntity
  8
2
  6
CENTER
 62
   174
100
AcDbLine
 10
200.0
 20
561.5
 30
0.0
 11
109.75
 21
561.5
 31
0.0
  0
LINE
  5
FF
100
AcDbEntity
  8
2
  6
Continuous
 62
   174
100
AcDbLine
 10
114.75
 20
559.25
 30
0.0
 11
200.0
 21
559.25
 31
0.0
  0
LINE
  5
100
100
AcDbEntity
  8
2
  6
Continuous
 62
   174
100
AcDbLine
 10
109.75
 20
551.25
 30
0.0
 11
200.0
 21
551.25
 31
0.0
  0
LINE
  5
101
100
AcDbEntity
  8
2
  6
CENTER
 62
   174
100
AcDbLine
 10
200.0
 20
541.0
 30
0.0
 11
109.75
 21
541.0
 31
0.0
  0
LINE
  5
102
100
AcDbEntity
  8
2
  6
Continuous
 62
   174
100
AcDbLine
 10
114.75
 20
543.25
 30
0.0
 11
200.0
 21
543.25
 31
0.0
  0
LINE
  5
103
100
AcDbEntity
  8
2
  6
Continuous
 62
   174
100
AcDbLine
 10
114.75
 20
538.75
 30
0.0
 11
200.0
 21
538.75
 31
0.0
  0
LINE
  5
104
100
AcDbEntity
  8
2
  6
Continuous
 62
   174
100
AcDbLine
 10
109.75
 20
530.75
 30
0.0
 11
200.0
 21
530.75
 31
0.0
  0
LINE
  5
105
100
AcDbEntity
  8
2
  6
Continuous
 62
   174
100
AcDbLine
 10
114.75
 20
522.75
 30
0.0
 11
200.0
 21
522.75
 31
0.0
  0
LINE
  5
106
100
AcDbEntity
  8
2
  6
CENTER
 62
   174
100
AcDbLine
 10
200.0
 20
520.5
 30
0.0
 11
109.75
 21
520.5
 31
0.0
  0
LINE
  5
107
100
AcDbEntity
  8
2
  6
Continuous
 62
   174
100
AcDbLine
 10
114.75
 20
518.25
 30
0.0
 11
200.0
 21
518.25
 31
0.0
  0
LINE
  5
108
100
AcDbEntity
  8
2
  6
Continuous
 62
   174
100
AcDbLine
 10
109.75
 20
510.25
 30
0.0
 11
200.0
 21
510.25
 31
0.0
  0
ARC
  5
109
100
AcDbEntity
  8
2
  6
Continuous
 62
   174
100
AcDbCircle
 10
114.75
 20
520.5
 30
0.0
 40
2.25
100
AcDbArc
 50
90.0
 51
-90.0
  0
LINE
  5
10A
100
AcDbEntity
  8
2
  6
Continuous
 62
   174
100
AcDbLine
 10
107.794349
 20
513.212757
 30
0.0
 11
115.42563
 21
518.25
 31
0.0
  0
LINE
  5
10B
100
AcDbEntity
  8
2
  6
Continuous
 62
   174
100
AcDbLine
 10
115.42563
 20
522.75
 30
0.0
 11
107.794349
 21
527.787243
 31
0.0
  0
ARC
  5
10C
100
AcDbEntity
  8
2
  6
Continuous
 62
   174
100
AcDbCircle
 10
114.75
 20
541.0
 30
0.0
 40
2.25
100
AcDbArc
 50
90.0
 51
-90.0
  0
LINE
  5
10D
100
AcDbEntity
  8
2
  6
Continuous
 62
   174
100
AcDbLine
 10
115.42563
 20
538.75
 30
0.0
 11
107.794349
 21
533.712757
 31
0.0
  0
LINE
  5
10E
100
AcDbEntity
  8
2
  6
Continuous
 62
   174
100
AcDbLine
 10
115.42563
 20
543.25
 30
0.0
 11
107.794349
 21
548.287243
 31
0.0
  0
ARC
  5
10F
100
AcDbEntity
  8
2
  6
Continuous
 62
   174
100
AcDbCircle
 10
114.75
 20
561.5
 30
0.0
 40
2.25
100
AcDbArc
 50
90.0
 51
-90.0
  0
LINE
  5
110
100
AcDbEntity
  8
2
  6
Continuous
 62
   174
100
AcDbLine
 10
107.794349
 20
568.787243
 30
0.0
 11
115.42563
 21
563.75
 31
0.0
  0
LINE
  5
111
100
AcDbEntity
  8
2
  6
Continuous
 62
   174
100
AcDbLine
 10
115.42563
 20
559.25
 30
0.0
 11
107.794349
 21
554.212757
 31
0.0
  0
LINE
  5
112
100
AcDbEntity
  8
2
  6
Continuous
 62
   174
100
AcDbLine
 10
410.55
 20
607.0
 30
0.0
 11
410.55
 21
657.0
 31
0.0
  0
LINE
  5
113
100
AcDbEntity
  8
2
  6
Continuous
 62
   174
100
AcDbLine
 10
411.2
 20
500.0
 30
0.0
 11
411.2
 21
450.0
 31
0.0
  0
LINE
  5
114
100
AcDbEntity
  8
2
  6
Continuous
 62
   174
100
AcDbLine
 10
410.55
 20
657.0
 30
0.0
 11
500.0
 21
657.0
 31
0.0
  0
LINE
  5
115
100
AcDbEntity
  8
2
  6
Continuous
 62
   174
100
AcDbLine
 10
410.55
 20
607.0
 30
0.0
 11
500.0
 21
607.0
 31
0.0
  0
LINE
  5
116
100
AcDbEntity
  8
2
  6
Continuous
 62
   174
100
AcDbLine
 10
411.2
 20
500.0
 30
0.0
 11
500.0
 21
500.0
 31
0.0
  0
LINE
  5
117
100
AcDbEntity
  8
2
  6
Continuous
 62
   174
100
AcDbLine
 10
411.2
 20
450.0
 30
0.0
 11
500.0
 21
450.0
 31
0.0
  0
LINE
  5
118
100
AcDbEntity
  8
2
  6
Continuous
 62
   174
100
AcDbLine
 10
415.096402
 20
606.013287
 30
0.0
 11
407.43867
 21
599.444486
 31
0.0
  0
ARC
  5
119
100
AcDbEntity
  8
2
  6
Continuous
 62
   174
100
AcDbCircle
 10
409.75
 20
596.75
 30
0.0
 40
3.55
100
AcDbArc
 50
130.622985
 51
-123.555974
  0
ARC
  5
11A
100
AcDbEntity
  8
2
  6
Continuous
 62
   174
100
AcDbCircle
 10
409.75
 20
576.25
 30
0.0
 40
3.55
100
AcDbArc
 50
123.108355
 51
-123.350436
  0
ARC
  5
11B
100
AcDbEntity
  8
2
  6
Continuous
 62
   174
100
AcDbCircle
 10
414.25
 20
607.0
 30
0.0
 40
1.3
100
AcDbArc
 50
-49.377015
 51
0.0
  0
LINE
  5
11C
100
AcDbEntity
  8
2
  6
Continuous
 62
   174
100
AcDbLine
 10
409.75
 20
596.75
 30
0.0
 11
500.0
 21
596.75
 31
0.0
  0
LINE
  5
11D
100
AcDbEntity
  8
2
  6
Continuous
 62
   174
100
AcDbLine
 10
414.75
 20
588.75
 30
0.0
 11
500.0
 21
588.75
 31
0.0
  0
LINE
  5
11E
100
AcDbEntity
  8
2
  6
CENTER
 62
   174
100
AcDbLine
 10
500.0
 20
586.5
 30
0.0
 11
409.75
 21
586.5
 31
0.0
  0
LINE
  5
11F
100
AcDbEntity
  8
2
  6
Continuous
 62
   174
100
AcDbLine
 10
414.75
 20
584.25
 30
0.0
 11
500.0
 21
584.25
 31
0.0
  0
LINE
  5
120
100
AcDbEntity
  8
2
  6
Continuous
 62
   174
100
AcDbLine
 10
409.75
 20
576.25
 30
0.0
 11
500.0
 21
576.25
 31
0.0
  0
LINE
  5
121
100
AcDbEntity
  8
2
  6
Continuous
 62
   174
100
AcDbLine
 10
414.75
 20
568.25
 30
0.0
 11
500.0
 21
568.25
 31
0.0
  0
LINE
  5
122
100
AcDbEntity
  8
2
  6
CENTER
 62
   174
100
AcDbLine
 10
500.0
 20
566.0
 30
0.0
 11
409.75
 21
566.0
 31
0.0
  0
LINE
  5
123
100
AcDbEntity
  8
2
  6
Continuous
 62
   174
100
AcDbLine
 10
414.75
 20
563.75
 30
0.0
 11
500.0
 21
563.75
 31
0.0
  0
LINE
  5
124
100
AcDbEntity
  8
2
  6
CENTER
 62
   174
100
AcDbLine
 10
106.2
 20
530.75
 30
0.0
 11
106.2
 21
551.25
 31
0.0
  0
ARC
  5
125
100
AcDbEntity
  8
2
  6
Continuous
 62
   174
100
AcDbCircle
 10
414.75
 20
586.5
 30
0.0
 40
2.25
100
AcDbArc
 50
90.0
 51
-90.0
  0
LINE
  5
126
100
AcDbEntity
  8
2
  6
Continuous
 62
   174
100
AcDbLine
 10
415.42563
 20
584.25
 30
0.0
 11
407.794349
 21
579.212757
 31
0.0
  0
LINE
  5
127
100
AcDbEntity
  8
2
  6
Continuous
 62
   174
100
AcDbLine
 10
415.42563
 20
588.75
 30
0.0
 11
407.794349
 21
593.787243
 31
0.0
  0
LINE
  5
128
100
AcDbEntity
  8
2
  6
Continuous
 62
   174
100
AcDbLine
 10
415.42563
 20
568.25
 30
0.0
 11
407.794349
 21
573.287243
 31
0.0
  0
ARC
  5
129
100
AcDbEntity
  8
2
  6
Continuous
 62
   174
100
AcDbCircle
 10
414.75
 20
566.0
 30
0.0
 40
2.25
100
AcDbArc
 50
90.0
 51
-90.0
  0
LINE
  5
12A
100
AcDbEntity
  8
2
  6
Continuous
 62
   174
100
AcDbLine
 10
415.42563
 20
563.75
 30
0.0
 11
411.070086
 21
560.875
 31
0.0
  0
LINE
  5
12B
100
AcDbEntity
  8
2
  6
Continuous
 62
   174
100
AcDbLine
 10
415.096402
 20
500.986713
 30
0.0
 11
407.43867
 21
507.555514
 31
0.0
  0
ARC
  5
12C
100
AcDbEntity
  8
2
  6
Continuous
 62
   174
100
AcDbCircle
 10
409.75
 20
510.25
 30
0.0
 40
3.55
100
AcDbArc
 50
123.555974
 51
-130.622985
  0
ARC
  5
12D
100
AcDbEntity
  8
2
  6
Continuous
 62
   174
100
AcDbCircle
 10
409.75
 20
530.75
 30
0.0
 40
3.55
100
AcDbArc
 50
123.350436
 51
-123.108355
  0
ARC
  5
12E
100
AcDbEntity
  8
2
  6
Continuous
 62
   174
100
AcDbCircle
 10
414.25
 20
500.0
 30
0.0
 40
1.3
100
AcDbArc
 50
0.0
 51
49.377015
  0
LINE
  5
12F
100
AcDbEntity
  8
2
  6
Continuous
 62
   174
100
AcDbLine
 10
409.75
 20
510.25
 30
0.0
 11
500.0
 21
510.25
 31
0.0
  0
LINE
  5
130
100
AcDbEntity
  8
2
  6
Continuous
 62
   174
100
AcDbLine
 10
414.75
 20
518.25
 30
0.0
 11
500.0
 21
518.25
 31
0.0
  0
LINE
  5
131
100
AcDbEntity
  8
2
  6
CENTER
 62
   174
100
AcDbLine
 10
500.0
 20
520.5
 30
0.0
 11
409.75
 21
520.5
 31
0.0
  0
LINE
  5
132
100
AcDbEntity
  8
2
  6
Continuous
 62
   174
100
AcDbLine
 10
414.75
 20
522.75
 30
0.0
 11
500.0
 21
522.75
 31
0.0
  0
LINE
  5
133
100
AcDbEntity
  8
2
  6
Continuous
 62
   174
100
AcDbLine
 10
409.75
 20
530.75
 30
0.0
 11
500.0
 21
530.75
 31
0.0
  0
LINE
  5
134
100
AcDbEntity
  8
2
  6
Continuous
 62
   174
100
AcDbLine
 10
414.75
 20
538.75
 30
0.0
 11
500.0
 21
538.75
 31
0.0
  0
LINE
  5
135
100
AcDbEntity
  8
2
  6
CENTER
 62
   174
100
AcDbLine
 10
500.0
 20
541.0
 30
0.0
 11
409.75
 21
541.0
 31
0.0
  0
LINE
  5
136
100
AcDbEntity
  8
2
  6
Continuous
 62
   174
100
AcDbLine
 10
414.75
 20
543.25
 30
0.0
 11
500.0
 21
543.25
 31
0.0
  0
ARC
  5
137
100
AcDbEntity
  8
2
  6
Continuous
 62
   174
100
AcDbCircle
 10
414.75
 20
520.5
 30
0.0
 40
2.25
100
AcDbArc
 50
90.0
 51
-90.0
  0
LINE
  5
138
100
AcDbEntity
  8
2
  6
Continuous
 62
   174
100
AcDbLine
 10
415.42563
 20
522.75
 30
0.0
 11
407.794349
 21
527.787243
 31
0.0
  0
LINE
  5
139
100
AcDbEntity
  8
2
  6
Continuous
 62
   174
100
AcDbLine
 10
415.42563
 20
518.25
 30
0.0
 11
407.794349
 21
513.212757
 31
0.0
  0
LINE
  5
13A
100
AcDbEntity
  8
2
  6
Continuous
 62
   174
100
AcDbLine
 10
415.42563
 20
538.75
 30
0.0
 11
407.794349
 21
533.712757
 31
0.0
  0
ARC
  5
13B
100
AcDbEntity
  8
2
  6
Continuous
 62
   174
100
AcDbCircle
 10
414.75
 20
541.0
 30
0.0
 40
2.25
100
AcDbArc
 50
90.0
 51
-90.0
  0
LINE
  5
13C
100
AcDbEntity
  8
2
  6
Continuous
 62
   174
100
AcDbLine
 10
415.42563
 20
543.25
 30
0.0
 11
411.070086
 21
546.125
 31
0.0
  0
LINE
  5
13D
100
AcDbEntity
  8
2
  6
CENTER
 62
   174
100
AcDbLine
 10
406.2
 20
576.25
 30
0.0
 11
406.2
 21
530.75
 31
0.0
  0
LINE
  5
13E
100
AcDbEntity
  8
2
  6
Continuous
 62
   174
100
AcDbLine
 10
717.5
 20
450.0
 30
0.0
 11
717.5
 21
300.0
 31
0.0
  0
LINE
  5
13F
100
AcDbEntity
  8
2
  6
Continuous
 62
   174
100
AcDbLine
 10
711.2
 20
500.0
 30
0.0
 11
711.2
 21
450.0
 31
0.0
  0
LINE
  5
140
100
AcDbEntity
  8
2
  6
Continuous
 62
   174
100
AcDbLine
 10
711.2
 20
500.0
 30
0.0
 11
800.0
 21
500.0
 31
0.0
  0
LINE
  5
141
100
AcDbEntity
  8
2
  6
Continuous
 62
   174
100
AcDbLine
 10
711.2
 20
450.0
 30
0.0
 11
800.0
 21
450.0
 31
0.0
  0
LINE
  5
142
100
AcDbEntity
  8
2
  6
Continuous
 62
   174
100
AcDbLine
 10
715.096402
 20
500.986713
 30
0.0
 11
707.43867
 21
507.555514
 31
0.0
  0
ARC
  5
143
100
AcDbEntity
  8
2
  6
Continuous
 62
   174
100
AcDbCircle
 10
709.75
 20
510.25
 30
0.0
 40
3.55
100
AcDbArc
 50
123.555974
 51
-130.622985
  0
ARC
  5
144
100
AcDbEntity
  8
2
  6
Continuous
 62
   174
100
AcDbCircle
 10
709.75
 20
530.75
 30
0.0
 40
3.55
100
AcDbArc
 50
123.350436
 51
-123.108355
  0
ARC
  5
145
100
AcDbEntity
  8
2
  6
Continuous
 62
   174
100
AcDbCircle
 10
714.25
 20
500.0
 30
0.0
 40
1.3
100
AcDbArc
 50
0.0
 51
49.377015
  0
LINE
  5
146
100
AcDbEntity
  8
2
  6
Continuous
 62
   174
100
AcDbLine
 10
709.75
 20
510.25
 30
0.0
 11
800.0
 21
510.25
 31
0.0
  0
LINE
  5
147
100
AcDbEntity
  8
2
  6
Continuous
 62
   174
100
AcDbLine
 10
714.75
 20
518.25
 30
0.0
 11
800.0
 21
518.25
 31
0.0
  0
LINE
  5
148
100
AcDbEntity
  8
2
  6
CENTER
 62
   174
100
AcDbLine
 10
800.0
 20
520.5
 30
0.0
 11
709.75
 21
520.5
 31
0.0
  0
LINE
  5
149
100
AcDbEntity
  8
2
  6
Continuous
 62
   174
100
AcDbLine
 10
714.75
 20
522.75
 30
0.0
 11
800.0
 21
522.75
 31
0.0
  0
LINE
  5
14A
100
AcDbEntity
  8
2
  6
Continuous
 62
   174
100
AcDbLine
 10
709.75
 20
530.75
 30
0.0
 11
800.0
 21
530.75
 31
0.0
  0
LINE
  5
14B
100
AcDbEntity
  8
2
  6
Continuous
 62
   174
100
AcDbLine
 10
714.75
 20
538.75
 30
0.0
 11
800.0
 21
538.75
 31
0.0
  0
LINE
  5
14C
100
AcDbEntity
  8
2
  6
CENTER
 62
   174
100
AcDbLine
 10
800.0
 20
541.0
 30
0.0
 11
709.75
 21
541.0
 31
0.0
  0
LINE
  5
14D
100
AcDbEntity
  8
2
  6
Continuous
 62
   174
100
AcDbLine
 10
714.75
 20
543.25
 30
0.0
 11
800.0
 21
543.25
 31
0.0
  0
ARC
  5
14E
100
AcDbEntity
  8
2
  6
Continuous
 62
   174
100
AcDbCircle
 10
714.75
 20
520.5
 30
0.0
 40
2.25
100
AcDbArc
 50
90.0
 51
-90.0
  0
LINE
  5
14F
100
AcDbEntity
  8
2
  6
Continuous
 62
   174
100
AcDbLine
 10
715.42563
 20
522.75
 30
0.0
 11
707.794349
 21
527.787243
 31
0.0
  0
LINE
  5
150
100
AcDbEntity
  8
2
  6
Continuous
 62
   174
100
AcDbLine
 10
715.42563
 20
518.25
 30
0.0
 11
707.794349
 21
513.212757
 31
0.0
  0
LINE
  5
151
100
AcDbEntity
  8
2
  6
Continuous
 62
   174
100
AcDbLine
 10
715.42563
 20
538.75
 30
0.0
 11
707.794349
 21
533.712757
 31
0.0
  0
ARC
  5
152
100
AcDbEntity
  8
2
  6
Continuous
 62
   174
100
AcDbCircle
 10
714.75
 20
541.0
 30
0.0
 40
2.25
100
AcDbArc
 50
90.0
 51
-90.0
  0
LINE
  5
153
100
AcDbEntity
  8
2
  6
Continuous
 62
   174
100
AcDbLine
 10
715.42563
 20
543.25
 30
0.0
 11
711.070086
 21
546.125
 31
0.0
  0
LINE
  5
154
100
AcDbEntity
  8
2
  6
Continuous
 62
   174
100
AcDbLine
 10
1017.5
 20
450.0
 30
0.0
 11
1017.5
 21
300.0
 31
0.0
  0
LINE
  5
155
100
AcDbEntity
  8
2
  6
Continuous
 62
   174
100
AcDbLine
 10
1011.2
 20
500.0
 30
0.0
 11
1011.2
 21
450.0
 31
0.0
  0
LINE
  5
156
100
AcDbEntity
  8
2
  6
Continuous
 62
   174
100
AcDbLine
 10
1011.2
 20
500.0
 30
0.0
 11
1100.0
 21
500.0
 31
0.0
  0
LINE
  5
157
100
AcDbEntity
  8
2
  6
Continuous
 62
   174
100
AcDbLine
 10
1011.2
 20
450.0
 30
0.0
 11
1100.0
 21
450.0
 31
0.0
  0
LINE
  5
158
100
AcDbEntity
  8
2
  6
Continuous
 62
   174
100
AcDbLine
 10
1015.096402
 20
500.986713
 30
0.0
 11
1007.43867
 21
507.555514
 31
0.0
  0
ARC
  5
159
100
AcDbEntity
  8
2
  6
Continuous
 62
   174
100
AcDbCircle
 10
1009.75
 20
510.25
 30
0.0
 40
3.55
100
AcDbArc
 50
123.555974
 51
-130.622985
  0
ARC
  5
15A
100
AcDbEntity
  8
2
  6
Continuous
 62
   174
100
AcDbCircle
 10
1009.75
 20
530.75
 30
0.0
 40
3.55
100
AcDbArc
 50
123.350436
 51
-123.108355
  0
ARC
  5
15B
100
AcDbEntity
  8
2
  6
Continuous
 62
   174
100
AcDbCircle
 10
1014.25
 20
500.0
 30
0.0
 40
1.3
100
AcDbArc
 50
0.0
 51
49.377015
  0
LINE
  5
15C
100
AcDbEntity
  8
2
  6
Continuous
 62
   174
100
AcDbLine
 10
1009.75
 20
510.25
 30
0.0
 11
1100.0
 21
510.25
 31
0.0
  0
LINE
  5
15D
100
AcDbEntity
  8
2
  6
Continuous
 62
   174
100
AcDbLine
 10
1014.75
 20
518.25
 30
0.0
 11
1100.0
 21
518.25
 31
0.0
  0
LINE
  5
15E
100
AcDbEntity
  8
2
  6
CENTER
 62
   174
100
AcDbLine
 10
1100.0
 20
520.5
 30
0.0
 11
1009.75
 21
520.5
 31
0.0
  0
LINE
  5
15F
100
AcDbEntity
  8
2
  6
Continuous
 62
   174
100
AcDbLine
 10
1014.75
 20
522.75
 30
0.0
 11
1100.0
 21
522.75
 31
0.0
  0
LINE
  5
160
100
AcDbEntity
  8
2
  6
Continuous
 62
   174
100
AcDbLine
 10
1009.75
 20
530.75
 30
0.0
 11
1100.0
 21
530.75
 31
0.0
  0
LINE
  5
161
100
AcDbEntity
  8
2
  6
Continuous
 62
   174
100
AcDbLine
 10
1014.75
 20
538.75
 30
0.0
 11
1100.0
 21
538.75
 31
0.0
  0
LINE
  5
162
100
AcDbEntity
  8
2
  6
CENTER
 62
   174
100
AcDbLine
 10
1100.0
 20
541.0
 30
0.0
 11
1009.75
 21
541.0
 31
0.0
  0
LINE
  5
163
100
AcDbEntity
  8
2
  6
Continuous
 62
   174
100
AcDbLine
 10
1014.75
 20
543.25
 30
0.0
 11
1100.0
 21
543.25
 31
0.0
  0
ARC
  5
164
100
AcDbEntity
  8
2
  6
Continuous
 62
   174
100
AcDbCircle
 10
1014.75
 20
520.5
 30
0.0
 40
2.25
100
AcDbArc
 50
90.0
 51
-90.0
  0
LINE
  5
165
100
AcDbEntity
  8
2
  6
Continuous
 62
   174
100
AcDbLine
 10
1015.42563
 20
522.75
 30
0.0
 11
1007.794349
 21
527.787243
 31
0.0
  0
LINE
  5
166
100
AcDbEntity
  8
2
  6
Continuous
 62
   174
100
AcDbLine
 10
1015.42563
 20
518.25
 30
0.0
 11
1007.794349
 21
513.212757
 31
0.0
  0
LINE
  5
167
100
AcDbEntity
  8
2
  6
Continuous
 62
   174
100
AcDbLine
 10
1015.42563
 20
538.75
 30
0.0
 11
1007.794349
 21
533.712757
 31
0.0
  0
ARC
  5
168
100
AcDbEntity
  8
2
  6
Continuous
 62
   174
100
AcDbCircle
 10
1014.75
 20
541.0
 30
0.0
 40
2.25
100
AcDbArc
 50
90.0
 51
-90.0
  0
LINE
  5
169
100
AcDbEntity
  8
2
  6
Continuous
 62
   174
100
AcDbLine
 10
1015.42563
 20
543.25
 30
0.0
 11
1011.070086
 21
546.125
 31
0.0
  0
LINE
  5
16A
100
AcDbEntity
  8
2
  6
Continuous
 62
   174
100
AcDbLine
 10
1317.5
 20
450.0
 30
0.0
 11
1317.5
 21
300.0
 31
0.0
  0
LINE
  5
16B
100
AcDbEntity
  8
2
  6
Continuous
 62
   174
100
AcDbLine
 10
1311.2
 20
500.0
 30
0.0
 11
1311.2
 21
450.0
 31
0.0
  0
LINE
  5
16C
100
AcDbEntity
  8
2
  6
Continuous
 62
   174
100
AcDbLine
 10
1311.2
 20
500.0
 30
0.0
 11
1400.0
 21
500.0
 31
0.0
  0
LINE
  5
16D
100
AcDbEntity
  8
2
  6
Continuous
 62
   174
100
AcDbLine
 10
1311.2
 20
450.0
 30
0.0
 11
1400.0
 21
450.0
 31
0.0
  0
LINE
  5
16E
100
AcDbEntity
  8
2
  6
Continuous
 62
   174
100
AcDbLine
 10
1315.096402
 20
500.986713
 30
0.0
 11
1307.43867
 21
507.555514
 31
0.0
  0
ARC
  5
16F
100
AcDbEntity
  8
2
  6
Continuous
 62
   174
100
AcDbCircle
 10
1309.75
 20
510.25
 30
0.0
 40
3.55
100
AcDbArc
 50
123.555974
 51
-130.622985
  0
ARC
  5
170
100
AcDbEntity
  8
2
  6
Continuous
 62
   174
100
AcDbCircle
 10
1309.75
 20
530.75
 30
0.0
 40
3.55
100
AcDbArc
 50
123.350436
 51
-123.108355
  0
ARC
  5
171
100
AcDbEntity
  8
2
  6
Continuous
 62
   174
100
AcDbCircle
 10
1314.25
 20
500.0
 30
0.0
 40
1.3
100
AcDbArc
 50
0.0
 51
49.377015
  0
LINE
  5
172
100
AcDbEntity
  8
2
  6
Continuous
 62
   174
100
AcDbLine
 10
1309.75
 20
510.25
 30
0.0
 11
1400.0
 21
510.25
 31
0.0
  0
LINE
  5
173
100
AcDbEntity
  8
2
  6
Continuous
 62
   174
100
AcDbLine
 10
1314.75
 20
518.25
 30
0.0
 11
1400.0
 21
518.25
 31
0.0
  0
LINE
  5
174
100
AcDbEntity
  8
2
  6
CENTER
 62
   174
100
AcDbLine
 10
1400.0
 20
520.5
 30
0.0
 11
1309.75
 21
520.5
 31
0.0
  0
LINE
  5
175
100
AcDbEntity
  8
2
  6
Continuous
 62
   174
100
AcDbLine
 10
1314.75
 20
522.75
 30
0.0
 11
1400.0
 21
522.75
 31
0.0
  0
LINE
  5
176
100
AcDbEntity
  8
2
  6
Continuous
 62
   174
100
AcDbLine
 10
1309.75
 20
530.75
 30
0.0
 11
1400.0
 21
530.75
 31
0.0
  0
LINE
  5
177
100
AcDbEntity
  8
2
  6
Continuous
 62
   174
100
AcDbLine
 10
1314.75
 20
538.75
 30
0.0
 11
1400.0
 21
538.75
 31
0.0
  0
LINE
  5
178
100
AcDbEntity
  8
2
  6
CENTER
 62
   174
100
AcDbLine
 10
1400.0
 20
541.0
 30
0.0
 11
1309.75
 21
541.0
 31
0.0
  0
LINE
  5
179
100
AcDbEntity
  8
2
  6
Continuous
 62
   174
100
AcDbLine
 10
1314.75
 20
543.25
 30
0.0
 11
1400.0
 21
543.25
 31
0.0
  0
ARC
  5
17A
100
AcDbEntity
  8
2
  6
Continuous
 62
   174
100
AcDbCircle
 10
1314.75
 20
520.5
 30
0.0
 40
2.25
100
AcDbArc
 50
90.0
 51
-90.0
  0
LINE
  5
17B
100
AcDbEntity
  8
2
  6
Continuous
 62
   174
100
AcDbLine
 10
1315.42563
 20
522.75
 30
0.0
 11
1307.794349
 21
527.787243
 31
0.0
  0
LINE
  5
17C
100
AcDbEntity
  8
2
  6
Continuous
 62
   174
100
AcDbLine
 10
1315.42563
 20
518.25
 30
0.0
 11
1307.794349
 21
513.212757
 31
0.0
  0
LINE
  5
17D
100
AcDbEntity
  8
2
  6
Continuous
 62
   174
100
AcDbLine
 10
1315.42563
 20
538.75
 30
0.0
 11
1307.794349
 21
533.712757
 31
0.0
  0
ARC
  5
17E
100
AcDbEntity
  8
2
  6
Continuous
 62
   174
100
AcDbCircle
 10
1314.75
 20
541.0
 30
0.0
 40
2.25
100
AcDbArc
 50
90.0
 51
-90.0
  0
LINE
  5
17F
100
AcDbEntity
  8
2
  6
Continuous
 62
   174
100
AcDbLine
 10
1315.42563
 20
543.25
 30
0.0
 11
1311.070086
 21
546.125
 31
0.0
  0
LINE
  5
180
100
AcDbEntity
  8
2
  6
Continuous
 62
   174
100
AcDbLine
 10
1617.5
 20
450.0
 30
0.0
 11
1617.5
 21
300.0
 31
0.0
  0
LINE
  5
181
100
AcDbEntity
  8
2
  6
Continuous
 62
   174
100
AcDbLine
 10
1611.2
 20
500.0
 30
0.0
 11
1611.2
 21
450.0
 31
0.0
  0
LINE
  5
182
100
AcDbEntity
  8
2
  6
Continuous
 62
   174
100
AcDbLine
 10
1611.2
 20
500.0
 30
0.0
 11
1700.0
 21
500.0
 31
0.0
  0
LINE
  5
183
100
AcDbEntity
  8
2
  6
Continuous
 62
   174
100
AcDbLine
 10
1611.2
 20
450.0
 30
0.0
 11
1700.0
 21
450.0
 31
0.0
  0
LINE
  5
184
100
AcDbEntity
  8
2
  6
Continuous
 62
   174
100
AcDbLine
 10
1615.096402
 20
500.986713
 30
0.0
 11
1607.43867
 21
507.555514
 31
0.0
  0
ARC
  5
185
100
AcDbEntity
  8
2
  6
Continuous
 62
   174
100
AcDbCircle
 10
1609.75
 20
510.25
 30
0.0
 40
3.55
100
AcDbArc
 50
123.555974
 51
-130.622985
  0
ARC
  5
186
100
AcDbEntity
  8
2
  6
Continuous
 62
   174
100
AcDbCircle
 10
1609.75
 20
530.75
 30
0.0
 40
3.55
100
AcDbArc
 50
123.350436
 51
-123.108355
  0
ARC
  5
187
100
AcDbEntity
  8
2
  6
Continuous
 62
   174
100
AcDbCircle
 10
1614.25
 20
500.0
 30
0.0
 40
1.3
100
AcDbArc
 50
0.0
 51
49.377015
  0
LINE
  5
188
100
AcDbEntity
  8
2
  6
Continuous
 62
   174
100
AcDbLine
 10
1609.75
 20
510.25
 30
0.0
 11
1700.0
 21
510.25
 31
0.0
  0
LINE
  5
189
100
AcDbEntity
  8
2
  6
Continuous
 62
   174
100
AcDbLine
 10
1614.75
 20
518.25
 30
0.0
 11
1700.0
 21
518.25
 31
0.0
  0
LINE
  5
18A
100
AcDbEntity
  8
2
  6
CENTER
 62
   174
100
AcDbLine
 10
1700.0
 20
520.5
 30
0.0
 11
1609.75
 21
520.5
 31
0.0
  0
LINE
  5
18B
100
AcDbEntity
  8
2
  6
Continuous
 62
   174
100
AcDbLine
 10
1614.75
 20
522.75
 30
0.0
 11
1700.0
 21
522.75
 31
0.0
  0
LINE
  5
18C
100
AcDbEntity
  8
2
  6
Continuous
 62
   174
100
AcDbLine
 10
1609.75
 20
530.75
 30
0.0
 11
1700.0
 21
530.75
 31
0.0
  0
LINE
  5
18D
100
AcDbEntity
  8
2
  6
Continuous
 62
   174
100
AcDbLine
 10
1614.75
 20
538.75
 30
0.0
 11
1700.0
 21
538.75
 31
0.0
  0
LINE
  5
18E
100
AcDbEntity
  8
2
  6
CENTER
 62
   174
100
AcDbLine
 10
1700.0
 20
541.0
 30
0.0
 11
1609.75
 21
541.0
 31
0.0
  0
LINE
  5
18F
100
AcDbEntity
  8
2
  6
Continuous
 62
   174
100
AcDbLine
 10
1614.75
 20
543.25
 30
0.0
 11
1700.0
 21
543.25
 31
0.0
  0
ARC
  5
190
100
AcDbEntity
  8
2
  6
Continuous
 62
   174
100
AcDbCircle
 10
1614.75
 20
520.5
 30
0.0
 40
2.25
100
AcDbArc
 50
90.0
 51
-90.0
  0
LINE
  5
191
100
AcDbEntity
  8
2
  6
Continuous
 62
   174
100
AcDbLine
 10
1615.42563
 20
522.75
 30
0.0
 11
1607.794349
 21
527.787243
 31
0.0
  0
LINE
  5
192
100
AcDbEntity
  8
2
  6
Continuous
 62
   174
100
AcDbLine
 10
1615.42563
 20
518.25
 30
0.0
 11
1607.794349
 21
513.212757
 31
0.0
  0
LINE
  5
193
100
AcDbEntity
  8
2
  6
Continuous
 62
   174
100
AcDbLine
 10
1615.42563
 20
538.75
 30
0.0
 11
1607.794349
 21
533.712757
 31
0.0
  0
ARC
  5
194
100
AcDbEntity
  8
2
  6
Continuous
 62
   174
100
AcDbCircle
 10
1614.75
 20
541.0
 30
0.0
 40
2.25
100
AcDbArc
 50
90.0
 51
-90.0
  0
LINE
  5
195
100
AcDbEntity
  8
2
  6
Continuous
 62
   174
100
AcDbLine
 10
1615.42563
 20
543.25
 30
0.0
 11
1611.070086
 21
546.125
 31
0.0
  0
LINE
  5
196
100
AcDbEntity
  8
2
  6
Continuous
 62
   174
100
AcDbLine
 10
1917.5
 20
450.0
 30
0.0
 11
1917.5
 21
300.0
 31
0.0
  0
LINE
  5
197
100
AcDbEntity
  8
2
  6
Continuous
 62
   174
100
AcDbLine
 10
1911.2
 20
500.0
 30
0.0
 11
1911.2
 21
450.0
 31
0.0
  0
LINE
  5
198
100
AcDbEntity
  8
2
  6
Continuous
 62
   174
100
AcDbLine
 10
1911.2
 20
500.0
 30
0.0
 11
2000.0
 21
500.0
 31
0.0
  0
LINE
  5
199
100
AcDbEntity
  8
2
  6
Continuous
 62
   174
100
AcDbLine
 10
1911.2
 20
450.0
 30
0.0
 11
2000.0
 21
450.0
 31
0.0
  0
LINE
  5
19A
100
AcDbEntity
  8
2
  6
Continuous
 62
   174
100
AcDbLine
 10
1915.096402
 20
500.986713
 30
0.0
 11
1907.43867
 21
507.555514
 31
0.0
  0
ARC
  5
19B
100
AcDbEntity
  8
2
  6
Continuous
 62
   174
100
AcDbCircle
 10
1909.75
 20
510.25
 30
0.0
 40
3.55
100
AcDbArc
 50
123.555974
 51
-130.622985
  0
ARC
  5
19C
100
AcDbEntity
  8
2
  6
Continuous
 62
   174
100
AcDbCircle
 10
1909.75
 20
530.75
 30
0.0
 40
3.55
100
AcDbArc
 50
123.350436
 51
-123.108355
  0
ARC
  5
19D
100
AcDbEntity
  8
2
  6
Continuous
 62
   174
100
AcDbCircle
 10
1914.25
 20
500.0
 30
0.0
 40
1.3
100
AcDbArc
 50
0.0
 51
49.377015
  0
LINE
  5
19E
100
AcDbEntity
  8
2
  6
Continuous
 62
   174
100
AcDbLine
 10
1909.75
 20
510.25
 30
0.0
 11
2000.0
 21
510.25
 31
0.0
  0
LINE
  5
19F
100
AcDbEntity
  8
2
  6
Continuous
 62
   174
100
AcDbLine
 10
1914.75
 20
518.25
 30
0.0
 11
2000.0
 21
518.25
 31
0.0
  0
LINE
  5
1A0
100
AcDbEntity
  8
2
  6
CENTER
 62
   174
100
AcDbLine
 10
2000.0
 20
520.5
 30
0.0
 11
1909.75
 21
520.5
 31
0.0
  0
LINE
  5
1A1
100
AcDbEntity
  8
2
  6
Continuous
 62
   174
100
AcDbLine
 10
1914.75
 20
522.75
 30
0.0
 11
2000.0
 21
522.75
 31
0.0
  0
LINE
  5
1A2
100
AcDbEntity
  8
2
  6
Continuous
 62
   174
100
AcDbLine
 10
1909.75
 20
530.75
 30
0.0
 11
2000.0
 21
530.75
 31
0.0
  0
LINE
  5
1A3
100
AcDbEntity
  8
2
  6
Continuous
 62
   174
100
AcDbLine
 10
1914.75
 20
538.75
 30
0.0
 11
2000.0
 21
538.75
 31
0.0
  0
LINE
  5
1A4
100
AcDbEntity
  8
2
  6
CENTER
 62
   174
100
AcDbLine
 10
2000.0
 20
541.0
 30
0.0
 11
1909.75
 21
541.0
 31
0.0
  0
LINE
  5
1A5
100
AcDbEntity
  8
2
  6
Continuous
 62
   174
100
AcDbLine
 10
1914.75
 20
543.25
 30
0.0
 11
2000.0
 21
543.25
 31
0.0
  0
ARC
  5
1A6
100
AcDbEntity
  8
2
  6
Continuous
 62
   174
100
AcDbCircle
 10
1914.75
 20
520.5
 30
0.0
 40
2.25
100
AcDbArc
 50
90.0
 51
-90.0
  0
LINE
  5
1A7
100
AcDbEntity
  8
2
  6
Continuous
 62
   174
100
AcDbLine
 10
1915.42563
 20
522.75
 30
0.0
 11
1907.794349
 21
527.787243
 31
0.0
  0
LINE
  5
1A8
100
AcDbEntity
  8
2
  6
Continuous
 62
   174
100
AcDbLine
 10
1915.42563
 20
518.25
 30
0.0
 11
1907.794349
 21
513.212757
 31
0.0
  0
LINE
  5
1A9
100
AcDbEntity
  8
2
  6
Continuous
 62
   174
100
AcDbLine
 10
1915.42563
 20
538.75
 30
0.0
 11
1907.794349
 21
533.712757
 31
0.0
  0
ARC
  5
1AA
100
AcDbEntity
  8
2
  6
Continuous
 62
   174
100
AcDbCircle
 10
1914.75
 20
541.0
 30
0.0
 40
2.25
100
AcDbArc
 50
90.0
 51
-90.0
  0
LINE
  5
1AB
100
AcDbEntity
  8
2
  6
Continuous
 62
   174
100
AcDbLine
 10
1915.42563
 20
543.25
 30
0.0
 11
1911.070086
 21
546.125
 31
0.0
  0
LINE
  5
1AC
100
AcDbEntity
  8
2
  6
Continuous
 62
   174
100
AcDbLine
 10
2217.5
 20
450.0
 30
0.0
 11
2217.5
 21
300.0
 31
0.0
  0
LINE
  5
1AD
100
AcDbEntity
  8
2
  6
Continuous
 62
   174
100
AcDbLine
 10
2211.2
 20
500.0
 30
0.0
 11
2211.2
 21
450.0
 31
0.0
  0
LINE
  5
1AE
100
AcDbEntity
  8
2
  6
Continuous
 62
   174
100
AcDbLine
 10
2211.2
 20
500.0
 30
0.0
 11
2300.0
 21
500.0
 31
0.0
  0
LINE
  5
1AF
100
AcDbEntity
  8
2
  6
Continuous
 62
   174
100
AcDbLine
 10
2211.2
 20
450.0
 30
0.0
 11
2300.0
 21
450.0
 31
0.0
  0
LINE
  5
1B0
100
AcDbEntity
  8
2
  6
Continuous
 62
   174
100
AcDbLine
 10
2215.096402
 20
500.986713
 30
0.0
 11
2207.43867
 21
507.555514
 31
0.0
  0
ARC
  5
1B1
100
AcDbEntity
  8
2
  6
Continuous
 62
   174
100
AcDbCircle
 10
2209.75
 20
510.25
 30
0.0
 40
3.55
100
AcDbArc
 50
123.555974
 51
-130.622985
  0
ARC
  5
1B2
100
AcDbEntity
  8
2
  6
Continuous
 62
   174
100
AcDbCircle
 10
2209.75
 20
530.75
 30
0.0
 40
3.55
100
AcDbArc
 50
123.350436
 51
-123.108355
  0
ARC
  5
1B3
100
AcDbEntity
  8
2
  6
Continuous
 62
   174
100
AcDbCircle
 10
2214.25
 20
500.0
 30
0.0
 40
1.3
100
AcDbArc
 50
0.0
 51
49.377015
  0
LINE
  5
1B4
100
AcDbEntity
  8
2
  6
Continuous
 62
   174
100
AcDbLine
 10
2209.75
 20
510.25
 30
0.0
 11
2300.0
 21
510.25
 31
0.0
  0
LINE
  5
1B5
100
AcDbEntity
  8
2
  6
Continuous
 62
   174
100
AcDbLine
 10
2214.75
 20
518.25
 30
0.0
 11
2300.0
 21
518.25
 31
0.0
  0
LINE
  5
1B6
100
AcDbEntity
  8
2
  6
CENTER
 62
   174
100
AcDbLine
 10
2300.0
 20
520.5
 30
0.0
 11
2209.75
 21
520.5
 31
0.0
  0
LINE
  5
1B7
100
AcDbEntity
  8
2
  6
Continuous
 62
   174
100
AcDbLine
 10
2214.75
 20
522.75
 30
0.0
 11
2300.0
 21
522.75
 31
0.0
  0
LINE
  5
1B8
100
AcDbEntity
  8
2
  6
Continuous
 62
   174
100
AcDbLine
 10
2209.75
 20
530.75
 30
0.0
 11
2300.0
 21
530.75
 31
0.0
  0
LINE
  5
1B9
100
AcDbEntity
  8
2
  6
Continuous
 62
   174
100
AcDbLine
 10
2214.75
 20
538.75
 30
0.0
 11
2300.0
 21
538.75
 31
0.0
  0
LINE
  5
1BA
100
AcDbEntity
  8
2
  6
CENTER
 62
   174
100
AcDbLine
 10
2300.0
 20
541.0
 30
0.0
 11
2209.75
 21
541.0
 31
0.0
  0
LINE
  5
1BB
100
AcDbEntity
  8
2
  6
Continuous
 62
   174
100
AcDbLine
 10
2214.75
 20
543.25
 30
0.0
 11
2300.0
 21
543.25
 31
0.0
  0
ARC
  5
1BC
100
AcDbEntity
  8
2
  6
Continuous
 62
   174
100
AcDbCircle
 10
2214.75
 20
520.5
 30
0.0
 40
2.25
100
AcDbArc
 50
90.0
 51
-90.0
  0
LINE
  5
1BD
100
AcDbEntity
  8
2
  6
Continuous
 62
   174
100
AcDbLine
 10
2215.42563
 20
522.75
 30
0.0
 11
2207.794349
 21
527.787243
 31
0.0
  0
LINE
  5
1BE
100
AcDbEntity
  8
2
  6
Continuous
 62
   174
100
AcDbLine
 10
2215.42563
 20
518.25
 30
0.0
 11
2207.794349
 21
513.212757
 31
0.0
  0
LINE
  5
1BF
100
AcDbEntity
  8
2
  6
Continuous
 62
   174
100
AcDbLine
 10
2215.42563
 20
538.75
 30
0.0
 11
2207.794349
 21
533.712757
 31
0.0
  0
ARC
  5
1C0
100
AcDbEntity
  8
2
  6
Continuous
 62
   174
100
AcDbCircle
 10
2214.75
 20
541.0
 30
0.0
 40
2.25
100
AcDbArc
 50
90.0
 51
-90.0
  0
LINE
  5
1C1
100
AcDbEntity
  8
2
  6
Continuous
 62
   174
100
AcDbLine
 10
2215.42563
 20
543.25
 30
0.0
 11
2211.070086
 21
546.125
 31
0.0
  0
LINE
  5
1C2
100
AcDbEntity
  8
2
  6
Continuous
 62
   174
100
AcDbLine
 10
2517.5
 20
450.0
 30
0.0
 11
2517.5
 21
300.0
 31
0.0
  0
LINE
  5
1C3
100
AcDbEntity
  8
2
  6
Continuous
 62
   174
100
AcDbLine
 10
2511.2
 20
500.0
 30
0.0
 11
2511.2
 21
450.0
 31
0.0
  0
LINE
  5
1C4
100
AcDbEntity
  8
2
  6
Continuous
 62
   174
100
AcDbLine
 10
2511.2
 20
500.0
 30
0.0
 11
2600.0
 21
500.0
 31
0.0
  0
LINE
  5
1C5
100
AcDbEntity
  8
2
  6
Continuous
 62
   174
100
AcDbLine
 10
2511.2
 20
450.0
 30
0.0
 11
2600.0
 21
450.0
 31
0.0
  0
LINE
  5
1C6
100
AcDbEntity
  8
2
  6
Continuous
 62
   174
100
AcDbLine
 10
2515.096402
 20
500.986713
 30
0.0
 11
2507.43867
 21
507.555514
 31
0.0
  0
ARC
  5
1C7
100
AcDbEntity
  8
2
  6
Continuous
 62
   174
100
AcDbCircle
 10
2509.75
 20
510.25
 30
0.0
 40
3.55
100
AcDbArc
 50
123.555974
 51
-130.622985
  0
ARC
  5
1C8
100
AcDbEntity
  8
2
  6
Continuous
 62
   174
100
AcDbCircle
 10
2509.75
 20
530.75
 30
0.0
 40
3.55
100
AcDbArc
 50
123.350436
 51
-123.108355
  0
ARC
  5
1C9
100
AcDbEntity
  8
2
  6
Continuous
 62
   174
100
AcDbCircle
 10
2514.25
 20
500.0
 30
0.0
 40
1.3
100
AcDbArc
 50
0.0
 51
49.377015
  0
LINE
  5
1CA
100
AcDbEntity
  8
2
  6
Continuous
 62
   174
100
AcDbLine
 10
2509.75
 20
510.25
 30
0.0
 11
2600.0
 21
510.25
 31
0.0
  0
LINE
  5
1CB
100
AcDbEntity
  8
2
  6
Continuous
 62
   174
100
AcDbLine
 10
2514.75
 20
518.25
 30
0.0
 11
2600.0
 21
518.25
 31
0.0
  0
LINE
  5
1CC
100
AcDbEntity
  8
2
  6
CENTER
 62
   174
100
AcDbLine
 10
2600.0
 20
520.5
 30
0.0
 11
2509.75
 21
520.5
 31
0.0
  0
LINE
  5
1CD
100
AcDbEntity
  8
2
  6
Continuous
 62
   174
100
AcDbLine
 10
2514.75
 20
522.75
 30
0.0
 11
2600.0
 21
522.75
 31
0.0
  0
LINE
  5
1CE
100
AcDbEntity
  8
2
  6
Continuous
 62
   174
100
AcDbLine
 10
2509.75
 20
530.75
 30
0.0
 11
2600.0
 21
530.75
 31
0.0
  0
LINE
  5
1CF
100
AcDbEntity
  8
2
  6
Continuous
 62
   174
100
AcDbLine
 10
2514.75
 20
538.75
 30
0.0
 11
2600.0
 21
538.75
 31
0.0
  0
LINE
  5
1D0
100
AcDbEntity
  8
2
  6
CENTER
 62
   174
100
AcDbLine
 10
2600.0
 20
541.0
 30
0.0
 11
2509.75
 21
541.0
 31
0.0
  0
LINE
  5
1D1
100
AcDbEntity
  8
2
  6
Continuous
 62
   174
100
AcDbLine
 10
2514.75
 20
543.25
 30
0.0
 11
2600.0
 21
543.25
 31
0.0
  0
ARC
  5
1D2
100
AcDbEntity
  8
2
  6
Continuous
 62
   174
100
AcDbCircle
 10
2514.75
 20
520.5
 30
0.0
 40
2.25
100
AcDbArc
 50
90.0
 51
-90.0
  0
LINE
  5
1D3
100
AcDbEntity
  8
2
  6
Continuous
 62
   174
100
AcDbLine
 10
2515.42563
 20
522.75
 30
0.0
 11
2507.794349
 21
527.787243
 31
0.0
  0
LINE
  5
1D4
100
AcDbEntity
  8
2
  6
Continuous
 62
   174
100
AcDbLine
 10
2515.42563
 20
518.25
 30
0.0
 11
2507.794349
 21
513.212757
 31
0.0
  0
LINE
  5
1D5
100
AcDbEntity
  8
2
  6
Continuous
 62
   174
100
AcDbLine
 10
2515.42563
 20
538.75
 30
0.0
 11
2507.794349
 21
533.712757
 31
0.0
  0
ARC
  5
1D6
100
AcDbEntity
  8
2
  6
Continuous
 62
   174
100
AcDbCircle
 10
2514.75
 20
541.0
 30
0.0
 40
2.25
100
AcDbArc
 50
90.0
 51
-90.0
  0
LINE
  5
1D7
100
AcDbEntity
  8
2
  6
Continuous
 62
   174
100
AcDbLine
 10
2515.42563
 20
543.25
 30
0.0
 11
2511.070086
 21
546.125
 31
0.0
  0
LINE
  5
1D8
100
AcDbEntity
  8
2
  6
Continuous
 62
   174
100
AcDbLine
 10
2817.5
 20
450.0
 30
0.0
 11
2817.5
 21
300.0
 31
0.0
  0
LINE
  5
1D9
100
AcDbEntity
  8
2
  6
Continuous
 62
   174
100
AcDbLine
 10
2811.2
 20
500.0
 30
0.0
 11
2811.2
 21
450.0
 31
0.0
  0
LINE
  5
1DA
100
AcDbEntity
  8
2
  6
Continuous
 62
   174
100
AcDbLine
 10
2811.2
 20
500.0
 30
0.0
 11
2900.0
 21
500.0
 31
0.0
  0
LINE
  5
1DB
100
AcDbEntity
  8
2
  6
Continuous
 62
   174
100
AcDbLine
 10
2811.2
 20
450.0
 30
0.0
 11
2900.0
 21
450.0
 31
0.0
  0
LINE
  5
1DC
100
AcDbEntity
  8
2
  6
Continuous
 62
   174
100
AcDbLine
 10
2815.096402
 20
500.986713
 30
0.0
 11
2807.43867
 21
507.555514
 31
0.0
  0
ARC
  5
1DD
100
AcDbEntity
  8
2
  6
Continuous
 62
   174
100
AcDbCircle
 10
2809.75
 20
510.25
 30
0.0
 40
3.55
100
AcDbArc
 50
123.555974
 51
-130.622985
  0
ARC
  5
1DE
100
AcDbEntity
  8
2
  6
Continuous
 62
   174
100
AcDbCircle
 10
2809.75
 20
530.75
 30
0.0
 40
3.55
100
AcDbArc
 50
123.350436
 51
-123.108355
  0
ARC
  5
1DF
100
AcDbEntity
  8
2
  6
Continuous
 62
   174
100
AcDbCircle
 10
2814.25
 20
500.0
 30
0.0
 40
1.3
100
AcDbArc
 50
0.0
 51
49.377015
  0
LINE
  5
1E0
100
AcDbEntity
  8
2
  6
Continuous
 62
   174
100
AcDbLine
 10
2809.75
 20
510.25
 30
0.0
 11
2900.0
 21
510.25
 31
0.0
  0
LINE
  5
1E1
100
AcDbEntity
  8
2
  6
Continuous
 62
   174
100
AcDbLine
 10
2814.75
 20
518.25
 30
0.0
 11
2900.0
 21
518.25
 31
0.0
  0
LINE
  5
1E2
100
AcDbEntity
  8
2
  6
CENTER
 62
   174
100
AcDbLine
 10
2900.0
 20
520.5
 30
0.0
 11
2809.75
 21
520.5
 31
0.0
  0
LINE
  5
1E3
100
AcDbEntity
  8
2
  6
Continuous
 62
   174
100
AcDbLine
 10
2814.75
 20
522.75
 30
0.0
 11
2900.0
 21
522.75
 31
0.0
  0
LINE
  5
1E4
100
AcDbEntity
  8
2
  6
Continuous
 62
   174
100
AcDbLine
 10
2809.75
 20
530.75
 30
0.0
 11
2900.0
 21
530.75
 31
0.0
  0
LINE
  5
1E5
100
AcDbEntity
  8
2
  6
Continuous
 62
   174
100
AcDbLine
 10
2814.75
 20
538.75
 30
0.0
 11
2900.0
 21
538.75
 31
0.0
  0
LINE
  5
1E6
100
AcDbEntity
  8
2
  6
CENTER
 62
   174
100
AcDbLine
 10
2900.0
 20
541.0
 30
0.0
 11
2809.75
 21
541.0
 31
0.0
  0
LINE
  5
1E7
100
AcDbEntity
  8
2
  6
Continuous
 62
   174
100
AcDbLine
 10
2814.75
 20
543.25
 30
0.0
 11
2900.0
 21
543.25
 31
0.0
  0
ARC
  5
1E8
100
AcDbEntity
  8
2
  6
Continuous
 62
   174
100
AcDbCircle
 10
2814.75
 20
520.5
 30
0.0
 40
2.25
100
AcDbArc
 50
90.0
 51
-90.0
  0
LINE
  5
1E9
100
AcDbEntity
  8
2
  6
Continuous
 62
   174
100
AcDbLine
 10
2815.42563
 20
522.75
 30
0.0
 11
2807.794349
 21
527.787243
 31
0.0
  0
LINE
  5
1EA
100
AcDbEntity
  8
2
  6
Continuous
 62
   174
100
AcDbLine
 10
2815.42563
 20
518.25
 30
0.0
 11
2807.794349
 21
513.212757
 31
0.0
  0
LINE
  5
1EB
100
AcDbEntity
  8
2
  6
Continuous
 62
   174
100
AcDbLine
 10
2815.42563
 20
538.75
 30
0.0
 11
2807.794349
 21
533.712757
 31
0.0
  0
ARC
  5
1EC
100
AcDbEntity
  8
2
  6
Continuous
 62
   174
100
AcDbCircle
 10
2814.75
 20
541.0
 30
0.0
 40
2.25
100
AcDbArc
 50
90.0
 51
-90.0
  0
LINE
  5
1ED
100
AcDbEntity
  8
2
  6
Continuous
 62
   174
100
AcDbLine
 10
2815.42563
 20
543.25
 30
0.0
 11
2811.070086
 21
546.125
 31
0.0
  0
LINE
  5
1EE
100
AcDbEntity
  8
2
  6
CENTER
 62
   174
100
AcDbLine
 10
800.0
 20
290.0
 30
0.0
 11
800.0
 21
852.0
 31
0.0
  0
LINE
  5
1EF
100
AcDbEntity
  8
2
  6
Continuous
 62
   174
100
AcDbLine
 10
709.346433
 20
698.270993
 30
0.0
 11
800.0
 21
698.270993
 31
0.0
  0
LINE
  5
1F0
100
AcDbEntity
  8
2
  6
Continuous
 62
   174
100
AcDbLine
 10
717.5
 20
690.073295
 30
0.0
 11
800.0
 21
690.073295
 31
0.0
  0
LINE
  5
1F1
100
AcDbEntity
  8
2
  6
Continuous
 62
   174
100
AcDbLine
 10
717.5
 20
690.073295
 30
0.0
 11
709.346433
 21
698.270993
 31
0.0
  0
LINE
  5
1F2
100
AcDbEntity
  8
2
  6
Continuous
 62
   174
100
AcDbLine
 10
707.749444
 20
842.0
 30
0.0
 11
709.346433
 21
698.270993
 31
0.0
  0
LINE
  5
1F3
100
AcDbEntity
  8
2
  6
Continuous
 62
   174
100
AcDbLine
 10
717.5
 20
677.0
 30
0.0
 11
717.5
 21
690.073295
 31
0.0
  0
LINE
  5
1F4
100
AcDbEntity
  8
2
  6
Continuous
 62
   174
100
AcDbLine
 10
710.55
 20
627.0
 30
0.0
 11
710.55
 21
677.0
 31
0.0
  0
LINE
  5
1F5
100
AcDbEntity
  8
2
  6
Continuous
 62
   174
100
AcDbLine
 10
710.55
 20
677.0
 30
0.0
 11
800.0
 21
677.0
 31
0.0
  0
LINE
  5
1F6
100
AcDbEntity
  8
2
  6
Continuous
 62
   174
100
AcDbLine
 10
710.55
 20
627.0
 30
0.0
 11
800.0
 21
627.0
 31
0.0
  0
LINE
  5
1F7
100
AcDbEntity
  8
2
  6
Continuous
 62
   174
100
AcDbLine
 10
715.096402
 20
626.013287
 30
0.0
 11
707.43867
 21
619.444486
 31
0.0
  0
ARC
  5
1F8
100
AcDbEntity
  8
2
  6
Continuous
 62
   174
100
AcDbCircle
 10
709.75
 20
616.75
 30
0.0
 40
3.55
100
AcDbArc
 50
130.622985
 51
-123.555974
  0
ARC
  5
1F9
100
AcDbEntity
  8
2
  6
Continuous
 62
   174
100
AcDbCircle
 10
709.75
 20
596.25
 30
0.0
 40
3.55
100
AcDbArc
 50
123.108355
 51
-123.350436
  0
ARC
  5
1FA
100
AcDbEntity
  8
2
  6
Continuous
 62
   174
100
AcDbCircle
 10
714.25
 20
627.0
 30
0.0
 40
1.3
100
AcDbArc
 50
-49.377015
 51
0.0
  0
LINE
  5
1FB
100
AcDbEntity
  8
2
  6
Continuous
 62
   174
100
AcDbLine
 10
709.75
 20
616.75
 30
0.0
 11
800.0
 21
616.75
 31
0.0
  0
LINE
  5
1FC
100
AcDbEntity
  8
2
  6
Continuous
 62
   174
100
AcDbLine
 10
714.75
 20
608.75
 30
0.0
 11
800.0
 21
608.75
 31
0.0
  0
LINE
  5
1FD
100
AcDbEntity
  8
2
  6
CENTER
 62
   174
100
AcDbLine
 10
800.0
 20
606.5
 30
0.0
 11
709.75
 21
606.5
 31
0.0
  0
LINE
  5
1FE
100
AcDbEntity
  8
2
  6
Continuous
 62
   174
100
AcDbLine
 10
714.75
 20
604.25
 30
0.0
 11
800.0
 21
604.25
 31
0.0
  0
LINE
  5
1FF
100
AcDbEntity
  8
2
  6
Continuous
 62
   174
100
AcDbLine
 10
709.75
 20
596.25
 30
0.0
 11
800.0
 21
596.25
 31
0.0
  0
LINE
  5
200
100
AcDbEntity
  8
2
  6
Continuous
 62
   174
100
AcDbLine
 10
714.75
 20
588.25
 30
0.0
 11
800.0
 21
588.25
 31
0.0
  0
LINE
  5
201
100
AcDbEntity
  8
2
  6
CENTER
 62
   174
100
AcDbLine
 10
800.0
 20
586.0
 30
0.0
 11
709.75
 21
586.0
 31
0.0
  0
LINE
  5
202
100
AcDbEntity
  8
2
  6
Continuous
 62
   174
100
AcDbLine
 10
714.75
 20
583.75
 30
0.0
 11
800.0
 21
583.75
 31
0.0
  0
ARC
  5
203
100
AcDbEntity
  8
2
  6
Continuous
 62
   174
100
AcDbCircle
 10
714.75
 20
606.5
 30
0.0
 40
2.25
100
AcDbArc
 50
90.0
 51
-90.0
  0
LINE
  5
204
100
AcDbEntity
  8
2
  6
Continuous
 62
   174
100
AcDbLine
 10
715.42563
 20
604.25
 30
0.0
 11
707.794349
 21
599.212757
 31
0.0
  0
LINE
  5
205
100
AcDbEntity
  8
2
  6
Continuous
 62
   174
100
AcDbLine
 10
715.42563
 20
608.75
 30
0.0
 11
707.794349
 21
613.787243
 31
0.0
  0
LINE
  5
206
100
AcDbEntity
  8
2
  6
Continuous
 62
   174
100
AcDbLine
 10
715.42563
 20
588.25
 30
0.0
 11
707.794349
 21
593.287243
 31
0.0
  0
ARC
  5
207
100
AcDbEntity
  8
2
  6
Continuous
 62
   174
100
AcDbCircle
 10
714.75
 20
586.0
 30
0.0
 40
2.25
100
AcDbArc
 50
90.0
 51
-90.0
  0
LINE
  5
208
100
AcDbEntity
  8
2
  6
Continuous
 62
   174
100
AcDbLine
 10
715.42563
 20
583.75
 30
0.0
 11
711.070086
 21
580.875
 31
0.0
  0
LINE
  5
209
100
AcDbEntity
  8
2
  6
CENTER
 62
   174
100
AcDbLine
 10
706.2
 20
596.25
 30
0.0
 11
706.2
 21
530.75
 31
0.0
  0
LINE
  5
20A
100
AcDbEntity
  8
2
  6
CENTER
 62
   174
100
AcDbLine
 10
1100.0
 20
290.0
 30
0.0
 11
1100.0
 21
877.0
 31
0.0
  0
LINE
  5
20B
100
AcDbEntity
  8
2
  6
Continuous
 62
   174
100
AcDbLine
 10
1009.346433
 20
723.270993
 30
0.0
 11
1100.0
 21
723.270993
 31
0.0
  0
LINE
  5
20C
100
AcDbEntity
  8
2
  6
Continuous
 62
   174
100
AcDbLine
 10
1017.5
 20
715.073295
 30
0.0
 11
1100.0
 21
715.073295
 31
0.0
  0
LINE
  5
20D
100
AcDbEntity
  8
2
  6
Continuous
 62
   174
100
AcDbLine
 10
1017.5
 20
715.073295
 30
0.0
 11
1009.346433
 21
723.270993
 31
0.0
  0
LINE
  5
20E
100
AcDbEntity
  8
2
  6
Continuous
 62
   174
100
AcDbLine
 10
1007.749444
 20
867.0
 30
0.0
 11
1009.346433
 21
723.270993
 31
0.0
  0
LINE
  5
20F
100
AcDbEntity
  8
2
  6
Continuous
 62
   174
100
AcDbLine
 10
1017.5
 20
702.0
 30
0.0
 11
1017.5
 21
715.073295
 31
0.0
  0
LINE
  5
210
100
AcDbEntity
  8
2
  6
Continuous
 62
   174
100
AcDbLine
 10
1010.55
 20
652.0
 30
0.0
 11
1010.55
 21
702.0
 31
0.0
  0
LINE
  5
211
100
AcDbEntity
  8
2
  6
Continuous
 62
   174
100
AcDbLine
 10
1010.55
 20
702.0
 30
0.0
 11
1100.0
 21
702.0
 31
0.0
  0
LINE
  5
212
100
AcDbEntity
  8
2
  6
Continuous
 62
   174
100
AcDbLine
 10
1010.55
 20
652.0
 30
0.0
 11
1100.0
 21
652.0
 31
0.0
  0
LINE
  5
213
100
AcDbEntity
  8
2
  6
Continuous
 62
   174
100
AcDbLine
 10
1015.096402
 20
651.013287
 30
0.0
 11
1007.43867
 21
644.444486
 31
0.0
  0
ARC
  5
214
100
AcDbEntity
  8
2
  6
Continuous
 62
   174
100
AcDbCircle
 10
1009.75
 20
641.75
 30
0.0
 40
3.55
100
AcDbArc
 50
130.622985
 51
-123.555974
  0
ARC
  5
215
100
AcDbEntity
  8
2
  6
Continuous
 62
   174
100
AcDbCircle
 10
1009.75
 20
621.25
 30
0.0
 40
3.55
100
AcDbArc
 50
123.108355
 51
-123.350436
  0
ARC
  5
216
100
AcDbEntity
  8
2
  6
Continuous
 62
   174
100
AcDbCircle
 10
1014.25
 20
652.0
 30
0.0
 40
1.3
100
AcDbArc
 50
-49.377015
 51
0.0
  0
LINE
  5
217
100
AcDbEntity
  8
2
  6
Continuous
 62
   174
100
AcDbLine
 10
1009.75
 20
641.75
 30
0.0
 11
1100.0
 21
641.75
 31
0.0
  0
LINE
  5
218
100
AcDbEntity
  8
2
  6
Continuous
 62
   174
100
AcDbLine
 10
1014.75
 20
633.75
 30
0.0
 11
1100.0
 21
633.75
 31
0.0
  0
LINE
  5
219
100
AcDbEntity
  8
2
  6
CENTER
 62
   174
100
AcDbLine
 10
1100.0
 20
631.5
 30
0.0
 11
1009.75
 21
631.5
 31
0.0
  0
LINE
  5
21A
100
AcDbEntity
  8
2
  6
Continuous
 62
   174
100
AcDbLine
 10
1014.75
 20
629.25
 30
0.0
 11
1100.0
 21
629.25
 31
0.0
  0
LINE
  5
21B
100
AcDbEntity
  8
2
  6
Continuous
 62
   174
100
AcDbLine
 10
1009.75
 20
621.25
 30
0.0
 11
1100.0
 21
621.25
 31
0.0
  0
LINE
  5
21C
100
AcDbEntity
  8
2
  6
Continuous
 62
   174
100
AcDbLine
 10
1014.75
 20
613.25
 30
0.0
 11
1100.0
 21
613.25
 31
0.0
  0
LINE
  5
21D
100
AcDbEntity
  8
2
  6
CENTER
 62
   174
100
AcDbLine
 10
1100.0
 20
611.0
 30
0.0
 11
1009.75
 21
611.0
 31
0.0
  0
LINE
  5
21E
100
AcDbEntity
  8
2
  6
Continuous
 62
   174
100
AcDbLine
 10
1014.75
 20
608.75
 30
0.0
 11
1100.0
 21
608.75
 31
0.0
  0
ARC
  5
21F
100
AcDbEntity
  8
2
  6
Continuous
 62
   174
100
AcDbCircle
 10
1014.75
 20
631.5
 30
0.0
 40
2.25
100
AcDbArc
 50
90.0
 51
-90.0
  0
LINE
  5
220
100
AcDbEntity
  8
2
  6
Continuous
 62
   174
100
AcDbLine
 10
1015.42563
 20
629.25
 30
0.0
 11
1007.794349
 21
624.212757
 31
0.0
  0
LINE
  5
221
100
AcDbEntity
  8
2
  6
Continuous
 62
   174
100
AcDbLine
 10
1015.42563
 20
633.75
 30
0.0
 11
1007.794349
 21
638.787243
 31
0.0
  0
LINE
  5
222
100
AcDbEntity
  8
2
  6
Continuous
 62
   174
100
AcDbLine
 10
1015.42563
 20
613.25
 30
0.0
 11
1007.794349
 21
618.287243
 31
0.0
  0
ARC
  5
223
100
AcDbEntity
  8
2
  6
Continuous
 62
   174
100
AcDbCircle
 10
1014.75
 20
611.0
 30
0.0
 40
2.25
100
AcDbArc
 50
90.0
 51
-90.0
  0
LINE
  5
224
100
AcDbEntity
  8
2
  6
Continuous
 62
   174
100
AcDbLine
 10
1015.42563
 20
608.75
 30
0.0
 11
1011.070086
 21
605.875
 31
0.0
  0
LINE
  5
225
100
AcDbEntity
  8
2
  6
CENTER
 62
   174
100
AcDbLine
 10
1006.2
 20
621.25
 30
0.0
 11
1006.2
 21
530.75
 31
0.0
  0
LINE
  5
226
100
AcDbEntity
  8
2
  6
CENTER
 62
   174
100
AcDbLine
 10
1400.0
 20
290.0
 30
0.0
 11
1400.0
 21
897.0
 31
0.0
  0
LINE
  5
227
100
AcDbEntity
  8
2
  6
Continuous
 62
   174
100
AcDbLine
 10
1309.346433
 20
743.270993
 30
0.0
 11
1400.0
 21
743.270993
 31
0.0
  0
LINE
  5
228
100
AcDbEntity
  8
2
  6
Continuous
 62
   174
100
AcDbLine
 10
1317.5
 20
735.073295
 30
0.0
 11
1400.0
 21
735.073295
 31
0.0
  0
LINE
  5
229
100
AcDbEntity
  8
2
  6
Continuous
 62
   174
100
AcDbLine
 10
1317.5
 20
735.073295
 30
0.0
 11
1309.346433
 21
743.270993
 31
0.0
  0
LINE
  5
22A
100
AcDbEntity
  8
2
  6
Continuous
 62
   174
100
AcDbLine
 10
1307.749444
 20
887.0
 30
0.0
 11
1309.346433
 21
743.270993
 31
0.0
  0
LINE
  5
22B
100
AcDbEntity
  8
2
  6
Continuous
 62
   174
100
AcDbLine
 10
1317.5
 20
722.0
 30
0.0
 11
1317.5
 21
735.073295
 31
0.0
  0
LINE
  5
22C
100
AcDbEntity
  8
2
  6
Continuous
 62
   174
100
AcDbLine
 10
1310.55
 20
672.0
 30
0.0
 11
1310.55
 21
722.0
 31
0.0
  0
LINE
  5
22D
100
AcDbEntity
  8
2
  6
Continuous
 62
   174
100
AcDbLine
 10
1310.55
 20
722.0
 30
0.0
 11
1400.0
 21
722.0
 31
0.0
  0
LINE
  5
22E
100
AcDbEntity
  8
2
  6
Continuous
 62
   174
100
AcDbLine
 10
1310.55
 20
672.0
 30
0.0
 11
1400.0
 21
672.0
 31
0.0
  0
LINE
  5
22F
100
AcDbEntity
  8
2
  6
Continuous
 62
   174
100
AcDbLine
 10
1315.096402
 20
671.013287
 30
0.0
 11
1307.43867
 21
664.444486
 31
0.0
  0
ARC
  5
230
100
AcDbEntity
  8
2
  6
Continuous
 62
   174
100
AcDbCircle
 10
1309.75
 20
661.75
 30
0.0
 40
3.55
100
AcDbArc
 50
130.622985
 51
-123.555974
  0
ARC
  5
231
100
AcDbEntity
  8
2
  6
Continuous
 62
   174
100
AcDbCircle
 10
1309.75
 20
641.25
 30
0.0
 40
3.55
100
AcDbArc
 50
123.108355
 51
-123.350436
  0
ARC
  5
232
100
AcDbEntity
  8
2
  6
Continuous
 62
   174
100
AcDbCircle
 10
1314.25
 20
672.0
 30
0.0
 40
1.3
100
AcDbArc
 50
-49.377015
 51
0.0
  0
LINE
  5
233
100
AcDbEntity
  8
2
  6
Continuous
 62
   174
100
AcDbLine
 10
1309.75
 20
661.75
 30
0.0
 11
1400.0
 21
661.75
 31
0.0
  0
LINE
  5
234
100
AcDbEntity
  8
2
  6
Continuous
 62
   174
100
AcDbLine
 10
1314.75
 20
653.75
 30
0.0
 11
1400.0
 21
653.75
 31
0.0
  0
LINE
  5
235
100
AcDbEntity
  8
2
  6
CENTER
 62
   174
100
AcDbLine
 10
1400.0
 20
651.5
 30
0.0
 11
1309.75
 21
651.5
 31
0.0
  0
LINE
  5
236
100
AcDbEntity
  8
2
  6
Continuous
 62
   174
100
AcDbLine
 10
1314.75
 20
649.25
 30
0.0
 11
1400.0
 21
649.25
 31
0.0
  0
LINE
  5
237
100
AcDbEntity
  8
2
  6
Continuous
 62
   174
100
AcDbLine
 10
1309.75
 20
641.25
 30
0.0
 11
1400.0
 21
641.25
 31
0.0
  0
LINE
  5
238
100
AcDbEntity
  8
2
  6
Continuous
 62
   174
100
AcDbLine
 10
1314.75
 20
633.25
 30
0.0
 11
1400.0
 21
633.25
 31
0.0
  0
LINE
  5
239
100
AcDbEntity
  8
2
  6
CENTER
 62
   174
100
AcDbLine
 10
1400.0
 20
631.0
 30
0.0
 11
1309.75
 21
631.0
 31
0.0
  0
LINE
  5
23A
100
AcDbEntity
  8
2
  6
Continuous
 62
   174
100
AcDbLine
 10
1314.75
 20
628.75
 30
0.0
 11
1400.0
 21
628.75
 31
0.0
  0
ARC
  5
23B
100
AcDbEntity
  8
2
  6
Continuous
 62
   174
100
AcDbCircle
 10
1314.75
 20
651.5
 30
0.0
 40
2.25
100
AcDbArc
 50
90.0
 51
-90.0
  0
LINE
  5
23C
100
AcDbEntity
  8
2
  6
Continuous
 62
   174
100
AcDbLine
 10
1315.42563
 20
649.25
 30
0.0
 11
1307.794349
 21
644.212757
 31
0.0
  0
LINE
  5
23D
100
AcDbEntity
  8
2
  6
Continuous
 62
   174
100
AcDbLine
 10
1315.42563
 20
653.75
 30
0.0
 11
1307.794349
 21
658.787243
 31
0.0
  0
LINE
  5
23E
100
AcDbEntity
  8
2
  6
Continuous
 62
   174
100
AcDbLine
 10
1315.42563
 20
633.25
 30
0.0
 11
1307.794349
 21
638.287243
 31
0.0
  0
ARC
  5
23F
100
AcDbEntity
  8
2
  6
Continuous
 62
   174
100
AcDbCircle
 10
1314.75
 20
631.0
 30
0.0
 40
2.25
100
AcDbArc
 50
90.0
 51
-90.0
  0
LINE
  5
240
100
AcDbEntity
  8
2
  6
Continuous
 62
   174
100
AcDbLine
 10
1315.42563
 20
628.75
 30
0.0
 11
1311.070086
 21
625.875
 31
0.0
  0
LINE
  5
241
100
AcDbEntity
  8
2
  6
CENTER
 62
   174
100
AcDbLine
 10
1306.2
 20
641.25
 30
0.0
 11
1306.2
 21
530.75
 31
0.0
  0
LINE
  5
242
100
AcDbEntity
  8
2
  6
CENTER
 62
   174
100
AcDbLine
 10
1700.0
 20
290.0
 30
0.0
 11
1700.0
 21
920.0
 31
0.0
  0
LINE
  5
243
100
AcDbEntity
  8
2
  6
Continuous
 62
   174
100
AcDbLine
 10
1609.346433
 20
766.270993
 30
0.0
 11
1700.0
 21
766.270993
 31
0.0
  0
LINE
  5
244
100
AcDbEntity
  8
2
  6
Continuous
 62
   174
100
AcDbLine
 10
1617.5
 20
758.073295
 30
0.0
 11
1700.0
 21
758.073295
 31
0.0
  0
LINE
  5
245
100
AcDbEntity
  8
2
  6
Continuous
 62
   174
100
AcDbLine
 10
1617.5
 20
758.073295
 30
0.0
 11
1609.346433
 21
766.270993
 31
0.0
  0
LINE
  5
246
100
AcDbEntity
  8
2
  6
Continuous
 62
   174
100
AcDbLine
 10
1607.749444
 20
910.0
 30
0.0
 11
1609.346433
 21
766.270993
 31
0.0
  0
LINE
  5
247
100
AcDbEntity
  8
2
  6
Continuous
 62
   174
100
AcDbLine
 10
1617.5
 20
745.0
 30
0.0
 11
1617.5
 21
758.073295
 31
0.0
  0
LINE
  5
248
100
AcDbEntity
  8
2
  6
Continuous
 62
   174
100
AcDbLine
 10
1610.55
 20
695.0
 30
0.0
 11
1610.55
 21
745.0
 31
0.0
  0
LINE
  5
249
100
AcDbEntity
  8
2
  6
Continuous
 62
   174
100
AcDbLine
 10
1610.55
 20
745.0
 30
0.0
 11
1700.0
 21
745.0
 31
0.0
  0
LINE
  5
24A
100
AcDbEntity
  8
2
  6
Continuous
 62
   174
100
AcDbLine
 10
1610.55
 20
695.0
 30
0.0
 11
1700.0
 21
695.0
 31
0.0
  0
LINE
  5
24B
100
AcDbEntity
  8
2
  6
Continuous
 62
   174
100
AcDbLine
 10
1615.096402
 20
694.013287
 30
0.0
 11
1607.43867
 21
687.444486
 31
0.0
  0
ARC
  5
24C
100
AcDbEntity
  8
2
  6
Continuous
 62
   174
100
AcDbCircle
 10
1609.75
 20
684.75
 30
0.0
 40
3.55
100
AcDbArc
 50
130.622985
 51
-123.555974
  0
ARC
  5
24D
100
AcDbEntity
  8
2
  6
Continuous
 62
   174
100
AcDbCircle
 10
1609.75
 20
664.25
 30
0.0
 40
3.55
100
AcDbArc
 50
123.108355
 51
-123.350436
  0
ARC
  5
24E
100
AcDbEntity
  8
2
  6
Continuous
 62
   174
100
AcDbCircle
 10
1614.25
 20
695.0
 30
0.0
 40
1.3
100
AcDbArc
 50
-49.377015
 51
0.0
  0
LINE
  5
24F
100
AcDbEntity
  8
2
  6
Continuous
 62
   174
100
AcDbLine
 10
1609.75
 20
684.75
 30
0.0
 11
1700.0
 21
684.75
 31
0.0
  0
LINE
  5
250
100
AcDbEntity
  8
2
  6
Continuous
 62
   174
100
AcDbLine
 10
1614.75
 20
676.75
 30
0.0
 11
1700.0
 21
676.75
 31
0.0
  0
LINE
  5
251
100
AcDbEntity
  8
2
  6
CENTER
 62
   174
100
AcDbLine
 10
1700.0
 20
674.5
 30
0.0
 11
1609.75
 21
674.5
 31
0.0
  0
LINE
  5
252
100
AcDbEntity
  8
2
  6
Continuous
 62
   174
100
AcDbLine
 10
1614.75
 20
672.25
 30
0.0
 11
1700.0
 21
672.25
 31
0.0
  0
LINE
  5
253
100
AcDbEntity
  8
2
  6
Continuous
 62
   174
100
AcDbLine
 10
1609.75
 20
664.25
 30
0.0
 11
1700.0
 21
664.25
 31
0.0
  0
LINE
  5
254
100
AcDbEntity
  8
2
  6
Continuous
 62
   174
100
AcDbLine
 10
1614.75
 20
656.25
 30
0.0
 11
1700.0
 21
656.25
 31
0.0
  0
LINE
  5
255
100
AcDbEntity
  8
2
  6
CENTER
 62
   174
100
AcDbLine
 10
1700.0
 20
654.0
 30
0.0
 11
1609.75
 21
654.0
 31
0.0
  0
LINE
  5
256
100
AcDbEntity
  8
2
  6
Continuous
 62
   174
100
AcDbLine
 10
1614.75
 20
651.75
 30
0.0
 11
1700.0
 21
651.75
 31
0.0
  0
ARC
  5
257
100
AcDbEntity
  8
2
  6
Continuous
 62
   174
100
AcDbCircle
 10
1614.75
 20
674.5
 30
0.0
 40
2.25
100
AcDbArc
 50
90.0
 51
-90.0
  0
LINE
  5
258
100
AcDbEntity
  8
2
  6
Continuous
 62
   174
100
AcDbLine
 10
1615.42563
 20
672.25
 30
0.0
 11
1607.794349
 21
667.212757
 31
0.0
  0
LINE
  5
259
100
AcDbEntity
  8
2
  6
Continuous
 62
   174
100
AcDbLine
 10
1615.42563
 20
676.75
 30
0.0
 11
1607.794349
 21
681.787243
 31
0.0
  0
LINE
  5
25A
100
AcDbEntity
  8
2
  6
Continuous
 62
   174
100
AcDbLine
 10
1615.42563
 20
656.25
 30
0.0
 11
1607.794349
 21
661.287243
 31
0.0
  0
ARC
  5
25B
100
AcDbEntity
  8
2
  6
Continuous
 62
   174
100
AcDbCircle
 10
1614.75
 20
654.0
 30
0.0
 40
2.25
100
AcDbArc
 50
90.0
 51
-90.0
  0
LINE
  5
25C
100
AcDbEntity
  8
2
  6
Continuous
 62
   174
100
AcDbLine
 10
1615.42563
 20
651.75
 30
0.0
 11
1611.070086
 21
648.875
 31
0.0
  0
LINE
  5
25D
100
AcDbEntity
  8
2
  6
CENTER
 62
   174
100
AcDbLine
 10
1606.2
 20
664.25
 30
0.0
 11
1606.2
 21
530.75
 31
0.0
  0
LINE
  5
25E
100
AcDbEntity
  8
2
  6
CENTER
 62
   174
100
AcDbLine
 10
2000.0
 20
290.0
 30
0.0
 11
2000.0
 21
925.0
 31
0.0
  0
LINE
  5
25F
100
AcDbEntity
  8
2
  6
Continuous
 62
   174
100
AcDbLine
 10
1909.346433
 20
771.270993
 30
0.0
 11
2000.0
 21
771.270993
 31
0.0
  0
LINE
  5
260
100
AcDbEntity
  8
2
  6
Continuous
 62
   174
100
AcDbLine
 10
1917.5
 20
763.073295
 30
0.0
 11
2000.0
 21
763.073295
 31
0.0
  0
LINE
  5
261
100
AcDbEntity
  8
2
  6
Continuous
 62
   174
100
AcDbLine
 10
1917.5
 20
763.073295
 30
0.0
 11
1909.346433
 21
771.270993
 31
0.0
  0
LINE
  5
262
100
AcDbEntity
  8
2
  6
Continuous
 62
   174
100
AcDbLine
 10
1907.749444
 20
915.0
 30
0.0
 11
1909.346433
 21
771.270993
 31
0.0
  0
LINE
  5
263
100
AcDbEntity
  8
2
  6
Continuous
 62
   174
100
AcDbLine
 10
1917.5
 20
750.0
 30
0.0
 11
1917.5
 21
763.073295
 31
0.0
  0
LINE
  5
264
100
AcDbEntity
  8
2
  6
Continuous
 62
   174
100
AcDbLine
 10
1910.55
 20
700.0
 30
0.0
 11
1910.55
 21
750.0
 31
0.0
  0
LINE
  5
265
100
AcDbEntity
  8
2
  6
Continuous
 62
   174
100
AcDbLine
 10
1910.55
 20
750.0
 30
0.0
 11
2000.0
 21
750.0
 31
0.0
  0
LINE
  5
266
100
AcDbEntity
  8
2
  6
Continuous
 62
   174
100
AcDbLine
 10
1910.55
 20
700.0
 30
0.0
 11
2000.0
 21
700.0
 31
0.0
  0
LINE
  5
267
100
AcDbEntity
  8
2
  6
Continuous
 62
   174
100
AcDbLine
 10
1915.096402
 20
699.013287
 30
0.0
 11
1907.43867
 21
692.444486
 31
0.0
  0
ARC
  5
268
100
AcDbEntity
  8
2
  6
Continuous
 62
   174
100
AcDbCircle
 10
1909.75
 20
689.75
 30
0.0
 40
3.55
100
AcDbArc
 50
130.622985
 51
-123.555974
  0
ARC
  5
269
100
AcDbEntity
  8
2
  6
Continuous
 62
   174
100
AcDbCircle
 10
1909.75
 20
669.25
 30
0.0
 40
3.55
100
AcDbArc
 50
123.108355
 51
-123.350436
  0
ARC
  5
26A
100
AcDbEntity
  8
2
  6
Continuous
 62
   174
100
AcDbCircle
 10
1914.25
 20
700.0
 30
0.0
 40
1.3
100
AcDbArc
 50
-49.377015
 51
0.0
  0
LINE
  5
26B
100
AcDbEntity
  8
2
  6
Continuous
 62
   174
100
AcDbLine
 10
1909.75
 20
689.75
 30
0.0
 11
2000.0
 21
689.75
 31
0.0
  0
LINE
  5
26C
100
AcDbEntity
  8
2
  6
Continuous
 62
   174
100
AcDbLine
 10
1914.75
 20
681.75
 30
0.0
 11
2000.0
 21
681.75
 31
0.0
  0
LINE
  5
26D
100
AcDbEntity
  8
2
  6
CENTER
 62
   174
100
AcDbLine
 10
2000.0
 20
679.5
 30
0.0
 11
1909.75
 21
679.5
 31
0.0
  0
LINE
  5
26E
100
AcDbEntity
  8
2
  6
Continuous
 62
   174
100
AcDbLine
 10
1914.75
 20
677.25
 30
0.0
 11
2000.0
 21
677.25
 31
0.0
  0
LINE
  5
26F
100
AcDbEntity
  8
2
  6
Continuous
 62
   174
100
AcDbLine
 10
1909.75
 20
669.25
 30
0.0
 11
2000.0
 21
669.25
 31
0.0
  0
LINE
  5
270
100
AcDbEntity
  8
2
  6
Continuous
 62
   174
100
AcDbLine
 10
1914.75
 20
661.25
 30
0.0
 11
2000.0
 21
661.25
 31
0.0
  0
LINE
  5
271
100
AcDbEntity
  8
2
  6
CENTER
 62
   174
100
AcDbLine
 10
2000.0
 20
659.0
 30
0.0
 11
1909.75
 21
659.0
 31
0.0
  0
LINE
  5
272
100
AcDbEntity
  8
2
  6
Continuous
 62
   174
100
AcDbLine
 10
1914.75
 20
656.75
 30
0.0
 11
2000.0
 21
656.75
 31
0.0
  0
ARC
  5
273
100
AcDbEntity
  8
2
  6
Continuous
 62
   174
100
AcDbCircle
 10
1914.75
 20
679.5
 30
0.0
 40
2.25
100
AcDbArc
 50
90.0
 51
-90.0
  0
LINE
  5
274
100
AcDbEntity
  8
2
  6
Continuous
 62
   174
100
AcDbLine
 10
1915.42563
 20
677.25
 30
0.0
 11
1907.794349
 21
672.212757
 31
0.0
  0
LINE
  5
275
100
AcDbEntity
  8
2
  6
Continuous
 62
   174
100
AcDbLine
 10
1915.42563
 20
681.75
 30
0.0
 11
1907.794349
 21
686.787243
 31
0.0
  0
LINE
  5
276
100
AcDbEntity
  8
2
  6
Continuous
 62
   174
100
AcDbLine
 10
1915.42563
 20
661.25
 30
0.0
 11
1907.794349
 21
666.287243
 31
0.0
  0
ARC
  5
277
100
AcDbEntity
  8
2
  6
Continuous
 62
   174
100
AcDbCircle
 10
1914.75
 20
659.0
 30
0.0
 40
2.25
100
AcDbArc
 50
90.0
 51
-90.0
  0
LINE
  5
278
100
AcDbEntity
  8
2
  6
Continuous
 62
   174
100
AcDbLine
 10
1915.42563
 20
656.75
 30
0.0
 11
1911.070086
 21
653.875
 31
0.0
  0
LINE
  5
279
100
AcDbEntity
  8
2
  6
CENTER
 62
   174
100
AcDbLine
 10
1906.2
 20
669.25
 30
0.0
 11
1906.2
 21
530.75
 31
0.0
  0
LINE
  5
27A
100
AcDbEntity
  8
2
  6
CENTER
 62
   174
100
AcDbLine
 10
2300.0
 20
290.0
 30
0.0
 11
2300.0
 21
940.0
 31
0.0
  0
LINE
  5
27B
100
AcDbEntity
  8
2
  6
Continuous
 62
   174
100
AcDbLine
 10
2209.346433
 20
786.270993
 30
0.0
 11
2300.0
 21
786.270993
 31
0.0
  0
LINE
  5
27C
100
AcDbEntity
  8
2
  6
Continuous
 62
   174
100
AcDbLine
 10
2217.5
 20
778.073295
 30
0.0
 11
2300.0
 21
778.073295
 31
0.0
  0
LINE
  5
27D
100
AcDbEntity
  8
2
  6
Continuous
 62
   174
100
AcDbLine
 10
2217.5
 20
778.073295
 30
0.0
 11
2209.346433
 21
786.270993
 31
0.0
  0
LINE
  5
27E
100
AcDbEntity
  8
2
  6
Continuous
 62
   174
100
AcDbLine
 10
2207.749444
 20
930.0
 30
0.0
 11
2209.346433
 21
786.270993
 31
0.0
  0
LINE
  5
27F
100
AcDbEntity
  8
2
  6
Continuous
 62
   174
100
AcDbLine
 10
2217.5
 20
765.0
 30
0.0
 11
2217.5
 21
778.073295
 31
0.0
  0
LINE
  5
280
100
AcDbEntity
  8
2
  6
Continuous
 62
   174
100
AcDbLine
 10
2210.55
 20
715.0
 30
0.0
 11
2210.55
 21
765.0
 31
0.0
  0
LINE
  5
281
100
AcDbEntity
  8
2
  6
Continuous
 62
   174
100
AcDbLine
 10
2210.55
 20
765.0
 30
0.0
 11
2300.0
 21
765.0
 31
0.0
  0
LINE
  5
282
100
AcDbEntity
  8
2
  6
Continuous
 62
   174
100
AcDbLine
 10
2210.55
 20
715.0
 30
0.0
 11
2300.0
 21
715.0
 31
0.0
  0
LINE
  5
283
100
AcDbEntity
  8
2
  6
Continuous
 62
   174
100
AcDbLine
 10
2215.096402
 20
714.013287
 30
0.0
 11
2207.43867
 21
707.444486
 31
0.0
  0
ARC
  5
284
100
AcDbEntity
  8
2
  6
Continuous
 62
   174
100
AcDbCircle
 10
2209.75
 20
704.75
 30
0.0
 40
3.55
100
AcDbArc
 50
130.622985
 51
-123.555974
  0
ARC
  5
285
100
AcDbEntity
  8
2
  6
Continuous
 62
   174
100
AcDbCircle
 10
2209.75
 20
684.25
 30
0.0
 40
3.55
100
AcDbArc
 50
123.108355
 51
-123.350436
  0
ARC
  5
286
100
AcDbEntity
  8
2
  6
Continuous
 62
   174
100
AcDbCircle
 10
2214.25
 20
715.0
 30
0.0
 40
1.3
100
AcDbArc
 50
-49.377015
 51
0.0
  0
LINE
  5
287
100
AcDbEntity
  8
2
  6
Continuous
 62
   174
100
AcDbLine
 10
2209.75
 20
704.75
 30
0.0
 11
2300.0
 21
704.75
 31
0.0
  0
LINE
  5
288
100
AcDbEntity
  8
2
  6
Continuous
 62
   174
100
AcDbLine
 10
2214.75
 20
696.75
 30
0.0
 11
2300.0
 21
696.75
 31
0.0
  0
LINE
  5
289
100
AcDbEntity
  8
2
  6
CENTER
 62
   174
100
AcDbLine
 10
2300.0
 20
694.5
 30
0.0
 11
2209.75
 21
694.5
 31
0.0
  0
LINE
  5
28A
100
AcDbEntity
  8
2
  6
Continuous
 62
   174
100
AcDbLine
 10
2214.75
 20
692.25
 30
0.0
 11
2300.0
 21
692.25
 31
0.0
  0
LINE
  5
28B
100
AcDbEntity
  8
2
  6
Continuous
 62
   174
100
AcDbLine
 10
2209.75
 20
684.25
 30
0.0
 11
2300.0
 21
684.25
 31
0.0
  0
LINE
  5
28C
100
AcDbEntity
  8
2
  6
Continuous
 62
   174
100
AcDbLine
 10
2214.75
 20
676.25
 30
0.0
 11
2300.0
 21
676.25
 31
0.0
  0
LINE
  5
28D
100
AcDbEntity
  8
2
  6
CENTER
 62
   174
100
AcDbLine
 10
2300.0
 20
674.0
 30
0.0
 11
2209.75
 21
674.0
 31
0.0
  0
LINE
  5
28E
100
AcDbEntity
  8
2
  6
Continuous
 62
   174
100
AcDbLine
 10
2214.75
 20
671.75
 30
0.0
 11
2300.0
 21
671.75
 31
0.0
  0
ARC
  5
28F
100
AcDbEntity
  8
2
  6
Continuous
 62
   174
100
AcDbCircle
 10
2214.75
 20
694.5
 30
0.0
 40
2.25
100
AcDbArc
 50
90.0
 51
-90.0
  0
LINE
  5
290
100
AcDbEntity
  8
2
  6
Continuous
 62
   174
100
AcDbLine
 10
2215.42563
 20
692.25
 30
0.0
 11
2207.794349
 21
687.212757
 31
0.0
  0
LINE
  5
291
100
AcDbEntity
  8
2
  6
Continuous
 62
   174
100
AcDbLine
 10
2215.42563
 20
696.75
 30
0.0
 11
2207.794349
 21
701.787243
 31
0.0
  0
LINE
  5
292
100
AcDbEntity
  8
2
  6
Continuous
 62
   174
100
AcDbLine
 10
2215.42563
 20
676.25
 30
0.0
 11
2207.794349
 21
681.287243
 31
0.0
  0
ARC
  5
293
100
AcDbEntity
  8
2
  6
Continuous
 62
   174
100
AcDbCircle
 10
2214.75
 20
674.0
 30
0.0
 40
2.25
100
AcDbArc
 50
90.0
 51
-90.0
  0
LINE
  5
294
100
AcDbEntity
  8
2
  6
Continuous
 62
   174
100
AcDbLine
 10
2215.42563
 20
671.75
 30
0.0
 11
2211.070086
 21
668.875
 31
0.0
  0
LINE
  5
295
100
AcDbEntity
  8
2
  6
CENTER
 62
   174
100
AcDbLine
 10
2206.2
 20
684.25
 30
0.0
 11
2206.2
 21
530.75
 31
0.0
  0
LINE
  5
296
100
AcDbEntity
  8
2
  6
CENTER
 62
   174
100
AcDbLine
 10
2600.0
 20
290.0
 30
0.0
 11
2600.0
 21
955.0
 31
0.0
  0
LINE
  5
297
100
AcDbEntity
  8
2
  6
Continuous
 62
   174
100
AcDbLine
 10
2509.346433
 20
801.270993
 30
0.0
 11
2600.0
 21
801.270993
 31
0.0
  0
LINE
  5
298
100
AcDbEntity
  8
2
  6
Continuous
 62
   174
100
AcDbLine
 10
2517.5
 20
793.073295
 30
0.0
 11
2600.0
 21
793.073295
 31
0.0
  0
LINE
  5
299
100
AcDbEntity
  8
2
  6
Continuous
 62
   174
100
AcDbLine
 10
2517.5
 20
793.073295
 30
0.0
 11
2509.346433
 21
801.270993
 31
0.0
  0
LINE
  5
29A
100
AcDbEntity
  8
2
  6
Continuous
 62
   174
100
AcDbLine
 10
2507.749444
 20
945.0
 30
0.0
 11
2509.346433
 21
801.270993
 31
0.0
  0
LINE
  5
29B
100
AcDbEntity
  8
2
  6
Continuous
 62
   174
100
AcDbLine
 10
2517.5
 20
780.0
 30
0.0
 11
2517.5
 21
793.073295
 31
0.0
  0
LINE
  5
29C
100
AcDbEntity
  8
2
  6
Continuous
 62
   174
100
AcDbLine
 10
2510.55
 20
730.0
 30
0.0
 11
2510.55
 21
780.0
 31
0.0
  0
LINE
  5
29D
100
AcDbEntity
  8
2
  6
Continuous
 62
   174
100
AcDbLine
 10
2510.55
 20
780.0
 30
0.0
 11
2600.0
 21
780.0
 31
0.0
  0
LINE
  5
29E
100
AcDbEntity
  8
2
  6
Continuous
 62
   174
100
AcDbLine
 10
2510.55
 20
730.0
 30
0.0
 11
2600.0
 21
730.0
 31
0.0
  0
LINE
  5
29F
100
AcDbEntity
  8
2
  6
Continuous
 62
   174
100
AcDbLine
 10
2515.096402
 20
729.013287
 30
0.0
 11
2507.43867
 21
722.444486
 31
0.0
  0
ARC
  5
2A0
100
AcDbEntity
  8
2
  6
Continuous
 62
   174
100
AcDbCircle
 10
2509.75
 20
719.75
 30
0.0
 40
3.55
100
AcDbArc
 50
130.622985
 51
-123.555974
  0
ARC
  5
2A1
100
AcDbEntity
  8
2
  6
Continuous
 62
   174
100
AcDbCircle
 10
2509.75
 20
699.25
 30
0.0
 40
3.55
100
AcDbArc
 50
123.108355
 51
-123.350436
  0
ARC
  5
2A2
100
AcDbEntity
  8
2
  6
Continuous
 62
   174
100
AcDbCircle
 10
2514.25
 20
730.0
 30
0.0
 40
1.3
100
AcDbArc
 50
-49.377015
 51
0.0
  0
LINE
  5
2A3
100
AcDbEntity
  8
2
  6
Continuous
 62
   174
100
AcDbLine
 10
2509.75
 20
719.75
 30
0.0
 11
2600.0
 21
719.75
 31
0.0
  0
LINE
  5
2A4
100
AcDbEntity
  8
2
  6
Continuous
 62
   174
100
AcDbLine
 10
2514.75
 20
711.75
 30
0.0
 11
2600.0
 21
711.75
 31
0.0
  0
LINE
  5
2A5
100
AcDbEntity
  8
2
  6
CENTER
 62
   174
100
AcDbLine
 10
2600.0
 20
709.5
 30
0.0
 11
2509.75
 21
709.5
 31
0.0
  0
LINE
  5
2A6
100
AcDbEntity
  8
2
  6
Continuous
 62
   174
100
AcDbLine
 10
2514.75
 20
707.25
 30
0.0
 11
2600.0
 21
707.25
 31
0.0
  0
LINE
  5
2A7
100
AcDbEntity
  8
2
  6
Continuous
 62
   174
100
AcDbLine
 10
2509.75
 20
699.25
 30
0.0
 11
2600.0
 21
699.25
 31
0.0
  0
LINE
  5
2A8
100
AcDbEntity
  8
2
  6
Continuous
 62
   174
100
AcDbLine
 10
2514.75
 20
691.25
 30
0.0
 11
2600.0
 21
691.25
 31
0.0
  0
LINE
  5
2A9
100
AcDbEntity
  8
2
  6
CENTER
 62
   174
100
AcDbLine
 10
2600.0
 20
689.0
 30
0.0
 11
2509.75
 21
689.0
 31
0.0
  0
LINE
  5
2AA
100
AcDbEntity
  8
2
  6
Continuous
 62
   174
100
AcDbLine
 10
2514.75
 20
686.75
 30
0.0
 11
2600.0
 21
686.75
 31
0.0
  0
ARC
  5
2AB
100
AcDbEntity
  8
2
  6
Continuous
 62
   174
100
AcDbCircle
 10
2514.75
 20
709.5
 30
0.0
 40
2.25
100
AcDbArc
 50
90.0
 51
-90.0
  0
LINE
  5
2AC
100
AcDbEntity
  8
2
  6
Continuous
 62
   174
100
AcDbLine
 10
2515.42563
 20
707.25
 30
0.0
 11
2507.794349
 21
702.212757
 31
0.0
  0
LINE
  5
2AD
100
AcDbEntity
  8
2
  6
Continuous
 62
   174
100
AcDbLine
 10
2515.42563
 20
711.75
 30
0.0
 11
2507.794349
 21
716.787243
 31
0.0
  0
LINE
  5
2AE
100
AcDbEntity
  8
2
  6
Continuous
 62
   174
100
AcDbLine
 10
2515.42563
 20
691.25
 30
0.0
 11
2507.794349
 21
696.287243
 31
0.0
  0
ARC
  5
2AF
100
AcDbEntity
  8
2
  6
Continuous
 62
   174
100
AcDbCircle
 10
2514.75
 20
689.0
 30
0.0
 40
2.25
100
AcDbArc
 50
90.0
 51
-90.0
  0
LINE
  5
2B0
100
AcDbEntity
  8
2
  6
Continuous
 62
   174
100
AcDbLine
 10
2515.42563
 20
686.75
 30
0.0
 11
2511.070086
 21
683.875
 31
0.0
  0
LINE
  5
2B1
100
AcDbEntity
  8
2
  6
CENTER
 62
   174
100
AcDbLine
 10
2506.2
 20
699.25
 30
0.0
 11
2506.2
 21
530.75
 31
0.0
  0
LINE
  5
2B2
100
AcDbEntity
  8
2
  6
CENTER
 62
   174
100
AcDbLine
 10
2900.0
 20
290.0
 30
0.0
 11
2900.0
 21
975.0
 31
0.0
  0
LINE
  5
2B3
100
AcDbEntity
  8
2
  6
Continuous
 62
   174
100
AcDbLine
 10
2809.346433
 20
821.270993
 30
0.0
 11
2900.0
 21
821.270993
 31
0.0
  0
LINE
  5
2B4
100
AcDbEntity
  8
2
  6
Continuous
 62
   174
100
AcDbLine
 10
2817.5
 20
813.073295
 30
0.0
 11
2900.0
 21
813.073295
 31
0.0
  0
LINE
  5
2B5
100
AcDbEntity
  8
2
  6
Continuous
 62
   174
100
AcDbLine
 10
2817.5
 20
813.073295
 30
0.0
 11
2809.346433
 21
821.270993
 31
0.0
  0
LINE
  5
2B6
100
AcDbEntity
  8
2
  6
Continuous
 62
   174
100
AcDbLine
 10
2807.749444
 20
965.0
 30
0.0
 11
2809.346433
 21
821.270993
 31
0.0
  0
LINE
  5
2B7
100
AcDbEntity
  8
2
  6
Continuous
 62
   174
100
AcDbLine
 10
2817.5
 20
800.0
 30
0.0
 11
2817.5
 21
813.073295
 31
0.0
  0
LINE
  5
2B8
100
AcDbEntity
  8
2
  6
Continuous
 62
   174
100
AcDbLine
 10
2810.55
 20
750.0
 30
0.0
 11
2810.55
 21
800.0
 31
0.0
  0
LINE
  5
2B9
100
AcDbEntity
  8
2
  6
Continuous
 62
   174
100
AcDbLine
 10
2810.55
 20
800.0
 30
0.0
 11
2900.0
 21
800.0
 31
0.0
  0
LINE
  5
2BA
100
AcDbEntity
  8
2
  6
Continuous
 62
   174
100
AcDbLine
 10
2810.55
 20
750.0
 30
0.0
 11
2900.0
 21
750.0
 31
0.0
  0
LINE
  5
2BB
100
AcDbEntity
  8
2
  6
Continuous
 62
   174
100
AcDbLine
 10
2815.096402
 20
749.013287
 30
0.0
 11
2807.43867
 21
742.444486
 31
0.0
  0
ARC
  5
2BC
100
AcDbEntity
  8
2
  6
Continuous
 62
   174
100
AcDbCircle
 10
2809.75
 20
739.75
 30
0.0
 40
3.55
100
AcDbArc
 50
130.622985
 51
-123.555974
  0
ARC
  5
2BD
100
AcDbEntity
  8
2
  6
Continuous
 62
   174
100
AcDbCircle
 10
2809.75
 20
719.25
 30
0.0
 40
3.55
100
AcDbArc
 50
123.108355
 51
-123.350436
  0
ARC
  5
2BE
100
AcDbEntity
  8
2
  6
Continuous
 62
   174
100
AcDbCircle
 10
2814.25
 20
750.0
 30
0.0
 40
1.3
100
AcDbArc
 50
-49.377015
 51
0.0
  0
LINE
  5
2BF
100
AcDbEntity
  8
2
  6
Continuous
 62
   174
100
AcDbLine
 10
2809.75
 20
739.75
 30
0.0
 11
2900.0
 21
739.75
 31
0.0
  0
LINE
  5
2C0
100
AcDbEntity
  8
2
  6
Continuous
 62
   174
100
AcDbLine
 10
2814.75
 20
731.75
 30
0.0
 11
2900.0
 21
731.75
 31
0.0
  0
LINE
  5
2C1
100
AcDbEntity
  8
2
  6
CENTER
 62
   174
100
AcDbLine
 10
2900.0
 20
729.5
 30
0.0
 11
2809.75
 21
729.5
 31
0.0
  0
LINE
  5
2C2
100
AcDbEntity
  8
2
  6
Continuous
 62
   174
100
AcDbLine
 10
2814.75
 20
727.25
 30
0.0
 11
2900.0
 21
727.25
 31
0.0
  0
LINE
  5
2C3
100
AcDbEntity
  8
2
  6
Continuous
 62
   174
100
AcDbLine
 10
2809.75
 20
719.25
 30
0.0
 11
2900.0
 21
719.25
 31
0.0
  0
LINE
  5
2C4
100
AcDbEntity
  8
2
  6
Continuous
 62
   174
100
AcDbLine
 10
2814.75
 20
711.25
 30
0.0
 11
2900.0
 21
711.25
 31
0.0
  0
LINE
  5
2C5
100
AcDbEntity
  8
2
  6
CENTER
 62
   174
100
AcDbLine
 10
2900.0
 20
709.0
 30
0.0
 11
2809.75
 21
709.0
 31
0.0
  0
LINE
  5
2C6
100
AcDbEntity
  8
2
  6
Continuous
 62
   174
100
AcDbLine
 10
2814.75
 20
706.75
 30
0.0
 11
2900.0
 21
706.75
 31
0.0
  0
ARC
  5
2C7
100
AcDbEntity
  8
2
  6
Continuous
 62
   174
100
AcDbCircle
 10
2814.75
 20
729.5
 30
0.0
 40
2.25
100
AcDbArc
 50
90.0
 51
-90.0
  0
LINE
  5
2C8
100
AcDbEntity
  8
2
  6
Continuous
 62
   174
100
AcDbLine
 10
2815.42563
 20
727.25
 30
0.0
 11
2807.794349
 21
722.212757
 31
0.0
  0
LINE
  5
2C9
100
AcDbEntity
  8
2
  6
Continuous
 62
   174
100
AcDbLine
 10
2815.42563
 20
731.75
 30
0.0
 11
2807.794349
 21
736.787243
 31
0.0
  0
LINE
  5
2CA
100
AcDbEntity
  8
2
  6
Continuous
 62
   174
100
AcDbLine
 10
2815.42563
 20
711.25
 30
0.0
 11
2807.794349
 21
716.287243
 31
0.0
  0
ARC
  5
2CB
100
AcDbEntity
  8
2
  6
Continuous
 62
   174
100
AcDbCircle
 10
2814.75
 20
709.0
 30
0.0
 40
2.25
100
AcDbArc
 50
90.0
 51
-90.0
  0
LINE
  5
2CC
100
AcDbEntity
  8
2
  6
Continuous
 62
   174
100
AcDbLine
 10
2815.42563
 20
706.75
 30
0.0
 11
2811.070086
 21
703.875
 31
0.0
  0
LINE
  5
2CD
100
AcDbEntity
  8
2
  6
CENTER
 62
   174
100
AcDbLine
 10
2806.2
 20
719.25
 30
0.0
 11
2806.2
 21
530.75
 31
0.0
  0
TEXT
  5
2CE
100
AcDbEntity
  8
2
  6
Continuous
 62
   174
100
AcDbText
 10
133.905298
 20
206.908003
 30
0.0
 40
30.0
  1
V150A　G1
 41
0.535396
 11
133.905298
 21
206.908003
 31
0.0
100
AcDbText
 73
     1
  0
TEXT
  5
2CF
100
AcDbEntity
  8
2
  6
Continuous
 62
   174
100
AcDbText
 10
433.905298
 20
206.908003
 30
0.0
 40
30.0
  1
V150A　G2
 41
0.535396
 11
433.905298
 21
206.908003
 31
0.0
100
AcDbText
 73
     1
  0
TEXT
  5
2D0
100
AcDbEntity
  8
2
  6
Continuous
 62
   174
100
AcDbText
 10
733.905298
 20
206.908003
 30
0.0
 40
30.0
  1
V150A　G3
 41
0.535396
 11
733.905298
 21
206.908003
 31
0.0
100
AcDbText
 73
     1
  0
TEXT
  5
2D1
100
AcDbEntity
  8
2
  6
Continuous
 62
   174
100
AcDbText
 10
1033.905298
 20
206.908003
 30
0.0
 40
30.0
  1
V150A　G4
 41
0.535396
 11
1033.905298
 21
206.908003
 31
0.0
100
AcDbText
 73
     1
  0
TEXT
  5
2D2
100
AcDbEntity
  8
2
  6
Continuous
 62
   174
100
AcDbText
 10
1333.905298
 20
206.908003
 30
0.0
 40
30.0
  1
V150A　G5
 41
0.535396
 11
1333.905298
 21
206.908003
 31
0.0
100
AcDbText
 73
     1
  0
TEXT
  5
2D3
100
AcDbEntity
  8
2
  6
Continuous
 62
   174
100
AcDbText
 10
1633.905298
 20
206.908003
 30
0.0
 40
30.0
  1
V150A　G6
 41
0.535396
 11
1633.905298
 21
206.908003
 31
0.0
100
AcDbText
 73
     1
  0
TEXT
  5
2D4
100
AcDbEntity
  8
2
  6
Continuous
 62
   174
100
AcDbText
 10
1933.905298
 20
206.908003
 30
0.0
 40
30.0
  1
V150A　G7
 41
0.535396
 11
1933.905298
 21
206.908003
 31
0.0
100
AcDbText
 73
     1
  0
TEXT
  5
2D5
100
AcDbEntity
  8
2
  6
Continuous
 62
   174
100
AcDbText
 10
2233.905298
 20
206.908003
 30
0.0
 40
30.0
  1
V150A　G8
 41
0.535396
 11
2233.905298
 21
206.908003
 31
0.0
100
AcDbText
 73
     1
  0
TEXT
  5
2D6
100
AcDbEntity
  8
2
  6
Continuous
 62
   174
100
AcDbText
 10
2533.905298
 20
206.908003
 30
0.0
 40
30.0
  1
V150A　G9
 41
0.535396
 11
2533.905298
 21
206.908003
 31
0.0
100
AcDbText
 73
     1
  0
TEXT
  5
2D7
100
AcDbEntity
  8
2
  6
Continuous
 62
   174
100
AcDbText
 10
2833.905298
 20
206.908003
 30
0.0
 40
30.0
  1
V150A　G10
 41
0.531664
 11
2833.905298
 21
206.908003
 31
0.0
100
AcDbText
 73
     1
  0
TEXT
  5
2D8
100
AcDbEntity
  8
2
  6
Continuous
 62
   174
100
AcDbText
 10
125.184371
 20
143.276128
 30
0.0
 40
20.0
  1
伸縮量　+20,-44
 41
0.634811
 11
125.184371
 21
143.276128
 31
0.0
100
AcDbText
 73
     1
  0
TEXT
  5
2D9
100
AcDbEntity
  8
2
  6
Continuous
 62
   174
100
AcDbText
 10
425.184371
 20
143.276128
 30
0.0
 40
20.0
  1
伸縮量　+20,-57
 41
0.634811
 11
425.184371
 21
143.276128
 31
0.0
100
AcDbText
 73
     1
  0
TEXT
  5
2DA
100
AcDbEntity
  8
2
  6
Continuous
 62
   174
100
AcDbText
 10
725.184371
 20
143.276128
 30
0.0
 40
20.0
  1
伸縮量　+24,-70
 41
0.634811
 11
725.184371
 21
143.276128
 31
0.0
100
AcDbText
 73
     1
  0
TEXT
  5
2DB
100
AcDbEntity
  8
2
  6
Continuous
 62
   174
100
AcDbText
 10
1025.184371
 20
143.276128
 30
0.0
 40
20.0
  1
伸縮量　+27,-88
 41
0.634811
 11
1025.184371
 21
143.276128
 31
0.0
100
AcDbText
 73
     1
  0
TEXT
  5
2DC
100
AcDbEntity
  8
2
  6
Continuous
 62
   174
100
AcDbText
 10
1325.184371
 20
143.276128
 30
0.0
 40
20.0
  1
伸縮量　+30,-100
 41
0.624349
 11
1325.184371
 21
143.276128
 31
0.0
100
AcDbText
 73
     1
  0
TEXT
  5
2DD
100
AcDbEntity
  8
2
  6
Continuous
 62
   174
100
AcDbText
 10
1625.184371
 20
143.276128
 30
0.0
 40
20.0
  1
伸縮量　+32,-110
 41
0.624349
 11
1625.184371
 21
143.276128
 31
0.0
100
AcDbText
 73
     1
  0
TEXT
  5
2DE
100
AcDbEntity
  8
2
  6
Continuous
 62
   174
100
AcDbText
 10
1925.184371
 20
143.276128
 30
0.0
 40
20.0
  1
伸縮量　+25,-115
 41
0.624349
 11
1925.184371
 21
143.276128
 31
0.0
100
AcDbText
 73
     1
  0
TEXT
  5
2DF
100
AcDbEntity
  8
2
  6
Continuous
 62
   174
100
AcDbText
 10
2225.184371
 20
143.276128
 30
0.0
 40
20.0
  1
伸縮量　+36,-120
 41
0.624349
 11
2225.184371
 21
143.276128
 31
0.0
100
AcDbText
 73
     1
  0
TEXT
  5
2E0
100
AcDbEntity
  8
2
  6
Continuous
 62
   174
100
AcDbText
 10
2525.184371
 20
143.276128
 30
0.0
 40
20.0
  1
伸縮量　+25,-125
 41
0.624349
 11
2525.184371
 21
143.276128
 31
0.0
100
AcDbText
 73
     1
  0
TEXT
  5
2E1
100
AcDbEntity
  8
2
  6
Continuous
 62
   174
100
AcDbText
 10
2825.184371
 20
143.276128
 30
0.0
 40
20.0
  1
伸縮量　+30,-132
 41
0.624349
 11
2825.184371
 21
143.276128
 31
0.0
100
AcDbText
 73
     1
  0
TEXT
  5
2E2
100
AcDbEntity
  8
2
  6
Continuous
 62
   174
100
AcDbText
 10
115.316144
 20
173.276128
 30
0.0
 40
20.0
  1
 取付長    497
 41
0.835503
 11
115.316144
 21
173.276128
 31
0.0
100
AcDbText
 73
     1
  0
TEXT
  5
2E3
100
AcDbEntity
  8
2
  6
Continuous
 62
   174
100
AcDbText
 10
415.316144
 20
173.276128
 30
0.0
 40
20.0
  1
 取付長    522
 41
0.835503
 11
415.316144
 21
173.276128
 31
0.0
100
AcDbText
 73
     1
  0
TEXT
  5
2E4
100
AcDbEntity
  8
2
  6
Continuous
 62
   174
100
AcDbText
 10
715.316144
 20
173.276128
 30
0.0
 40
20.0
  1
 取付長    542
 41
0.835503
 11
715.316144
 21
173.276128
 31
0.0
100
AcDbText
 73
     1
  0
TEXT
  5
2E5
100
AcDbEntity
  8
2
  6
Continuous
 62
   174
100
AcDbText
 10
1015.316144
 20
173.276128
 30
0.0
 40
20.0
  1
 取付長    567
 41
0.835503
 11
1015.316144
 21
173.276128
 31
0.0
100
AcDbText
 73
     1
  0
TEXT
  5
2E6
100
AcDbEntity
  8
2
  6
Continuous
 62
   174
100
AcDbText
 10
1315.316144
 20
173.276128
 30
0.0
 40
20.0
  1
 取付長    587
 41
0.835503
 11
1315.316144
 21
173.276128
 31
0.0
100
AcDbText
 73
     1
  0
TEXT
  5
2E7
100
AcDbEntity
  8
2
  6
Continuous
 62
   174
100
AcDbText
 10
1615.316144
 20
173.276128
 30
0.0
 40
20.0
  1
 取付長    610
 41
0.835503
 11
1615.316144
 21
173.276128
 31
0.0
100
AcDbText
 73
     1
  0
TEXT
  5
2E8
100
AcDbEntity
  8
2
  6
Continuous
 62
   174
100
AcDbText
 10
1915.316144
 20
173.276128
 30
0.0
 40
20.0
  1
 取付長    615
 41
0.835503
 11
1915.316144
 21
173.276128
 31
0.0
100
AcDbText
 73
     1
  0
TEXT
  5
2E9
100
AcDbEntity
  8
2
  6
Continuous
 62
   174
100
AcDbText
 10
2215.316144
 20
173.276128
 30
0.0
 40
20.0
  1
 取付長    630
 41
0.835503
 11
2215.316144
 21
173.276128
 31
0.0
100
AcDbText
 73
     1
  0
TEXT
  5
2EA
100
AcDbEntity
  8
2
  6
Continuous
 62
   174
100
AcDbText
 10
2515.316144
 20
173.276128
 30
0.0
 40
20.0
  1
 取付長    645
 41
0.835503
 11
2515.316144
 21
173.276128
 31
0.0
100
AcDbText
 73
     1
  0
TEXT
  5
2EB
100
AcDbEntity
  8
2
  6
Continuous
 62
   174
100
AcDbText
 10
2815.316144
 20
173.276128
 30
0.0
 40
20.0
  1
 取付長    665
 41
0.835503
 11
2815.316144
 21
173.276128
 31
0.0
100
AcDbText
 73
     1
  0
LINE
  5
2EC
100
AcDbEntity
  8
2
  6
Continuous
 62
   174
100
AcDbLine
 10
107.749444
 20
797.0
 30
0.0
 11
200.0
 21
797.0
 31
0.0
  0
LINE
  5
2ED
100
AcDbEntity
  8
2
  6
Continuous
 62
   174
100
AcDbLine
 10
117.5
 20
300.0
 30
0.0
 11
200.0
 21
300.0
 31
0.0
  0
LINE
  5
2EE
100
AcDbEntity
  8
2
  6
Continuous
 62
   174
100
AcDbLine
 10
417.5
 20
300.0
 30
0.0
 11
500.0
 21
300.0
 31
0.0
  0
LINE
  5
2EF
100
AcDbEntity
  8
2
  6
Continuous
 62
   174
100
AcDbLine
 10
407.749444
 20
822.0
 30
0.0
 11
500.0
 21
822.0
 31
0.0
  0
LINE
  5
2F0
100
AcDbEntity
  8
2
  6
Continuous
 62
   174
100
AcDbLine
 10
707.749444
 20
842.0
 30
0.0
 11
800.0
 21
842.0
 31
0.0
  0
LINE
  5
2F1
100
AcDbEntity
  8
2
  6
Continuous
 62
   174
100
AcDbLine
 10
717.5
 20
300.0
 30
0.0
 11
800.0
 21
300.0
 31
0.0
  0
LINE
  5
2F2
100
AcDbEntity
  8
2
  6
Continuous
 62
   174
100
AcDbLine
 10
1017.5
 20
300.0
 30
0.0
 11
1100.0
 21
300.0
 31
0.0
  0
LINE
  5
2F3
100
AcDbEntity
  8
2
  6
Continuous
 62
   174
100
AcDbLine
 10
1007.749444
 20
867.0
 30
0.0
 11
1100.0
 21
867.0
 31
0.0
  0
LINE
  5
2F4
100
AcDbEntity
  8
2
  6
Continuous
 62
   174
100
AcDbLine
 10
1307.749444
 20
887.0
 30
0.0
 11
1400.0
 21
887.0
 31
0.0
  0
LINE
  5
2F5
100
AcDbEntity
  8
2
  6
Continuous
 62
   174
100
AcDbLine
 10
1317.5
 20
300.0
 30
0.0
 11
1400.0
 21
300.0
 31
0.0
  0
LINE
  5
2F6
100
AcDbEntity
  8
2
  6
Continuous
 62
   174
100
AcDbLine
 10
1617.5
 20
300.0
 30
0.0
 11
1700.0
 21
300.0
 31
0.0
  0
LINE
  5
2F7
100
AcDbEntity
  8
2
  6
Continuous
 62
   174
100
AcDbLine
 10
1607.749444
 20
910.0
 30
0.0
 11
1700.0
 21
910.0
 31
0.0
  0
LINE
  5
2F8
100
AcDbEntity
  8
2
  6
Continuous
 62
   174
100
AcDbLine
 10
1907.749444
 20
915.0
 30
0.0
 11
2000.0
 21
915.0
 31
0.0
  0
LINE
  5
2F9
100
AcDbEntity
  8
2
  6
Continuous
 62
   174
100
AcDbLine
 10
1917.5
 20
300.0
 30
0.0
 11
2000.0
 21
300.0
 31
0.0
  0
LINE
  5
2FA
100
AcDbEntity
  8
2
  6
Continuous
 62
   174
100
AcDbLine
 10
2217.5
 20
300.0
 30
0.0
 11
2300.0
 21
300.0
 31
0.0
  0
LINE
  5
2FB
100
AcDbEntity
  8
2
  6
Continuous
 62
   174
100
AcDbLine
 10
2207.749444
 20
930.0
 30
0.0
 11
2300.0
 21
930.0
 31
0.0
  0
LINE
  5
2FC
100
AcDbEntity
  8
2
  6
Continuous
 62
   174
100
AcDbLine
 10
2507.749444
 20
945.0
 30
0.0
 11
2600.0
 21
945.0
 31
0.0
  0
LINE
  5
2FD
100
AcDbEntity
  8
2
  6
Continuous
 62
   174
100
AcDbLine
 10
2517.5
 20
300.0
 30
0.0
 11
2600.0
 21
300.0
 31
0.0
  0
LINE
  5
2FE
100
AcDbEntity
  8
2
  6
Continuous
 62
   174
100
AcDbLine
 10
2817.5
 20
300.0
 30
0.0
 11
2900.0
 21
300.0
 31
0.0
  0
LINE
  5
2FF
100
AcDbEntity
  8
2
  6
Continuous
 62
   174
100
AcDbLine
 10
2807.749444
 20
965.0
 30
0.0
 11
2900.0
 21
965.0
 31
0.0
  0
LINE
  5
300
100
AcDbEntity
  8
2
  6
Continuous
 62
   174
100
AcDbLine
 10
290.653567
 20
653.270993
 30
0.0
 11
200.0
 21
653.270993
 31
0.0
  0
LINE
  5
301
100
AcDbEntity
  8
2
  6
Continuous
 62
   174
100
AcDbLine
 10
282.5
 20
645.073295
 30
0.0
 11
200.0
 21
645.073295
 31
0.0
  0
LINE
  5
302
100
AcDbEntity
  8
2
  6
Continuous
 62
   174
100
AcDbLine
 10
282.5
 20
645.073295
 30
0.0
 11
290.653567
 21
653.270993
 31
0.0
  0
LINE
  5
303
100
AcDbEntity
  8
2
  6
Continuous
 62
   174
100
AcDbLine
 10
292.250556
 20
797.0
 30
0.0
 11
290.653567
 21
653.270993
 31
0.0
  0
LINE
  5
304
100
AcDbEntity
  8
2
  6
Continuous
 62
   174
100
AcDbLine
 10
282.5
 20
450.0
 30
0.0
 11
282.5
 21
300.0
 31
0.0
  0
LINE
  5
305
100
AcDbEntity
  8
2
  6
Continuous
 62
   174
100
AcDbLine
 10
282.5
 20
632.0
 30
0.0
 11
282.5
 21
645.073295
 31
0.0
  0
LINE
  5
306
100
AcDbEntity
  8
2
  6
Continuous
 62
   174
100
AcDbLine
 10
289.45
 20
582.0
 30
0.0
 11
289.45
 21
632.0
 31
0.0
  0
LINE
  5
307
100
AcDbEntity
  8
2
  6
Continuous
 62
   174
100
AcDbLine
 10
289.45
 20
632.0
 30
0.0
 11
200.0
 21
632.0
 31
0.0
  0
LINE
  5
308
100
AcDbEntity
  8
2
  6
Continuous
 62
   174
100
AcDbLine
 10
289.45
 20
582.0
 30
0.0
 11
200.0
 21
582.0
 31
0.0
  0
LINE
  5
309
100
AcDbEntity
  8
2
  6
Continuous
 62
   174
100
AcDbLine
 10
288.8
 20
500.0
 30
0.0
 11
288.8
 21
450.0
 31
0.0
  0
LINE
  5
30A
100
AcDbEntity
  8
2
  6
Continuous
 62
   174
100
AcDbLine
 10
288.8
 20
500.0
 30
0.0
 11
200.0
 21
500.0
 31
0.0
  0
LINE
  5
30B
100
AcDbEntity
  8
2
  6
Continuous
 62
   174
100
AcDbLine
 10
288.8
 20
450.0
 30
0.0
 11
200.0
 21
450.0
 31
0.0
  0
LINE
  5
30C
100
AcDbEntity
  8
2
  6
Continuous
 62
   174
100
AcDbLine
 10
284.903598
 20
581.013287
 30
0.0
 11
292.56133
 21
574.444486
 31
0.0
  0
ARC
  5
30D
100
AcDbEntity
  8
2
  6
Continuous
 62
   174
100
AcDbCircle
 10
285.75
 20
582.0
 30
0.0
 40
1.3
100
AcDbArc
 50
180.0
 51
-130.622985
  0
ARC
  5
30E
100
AcDbEntity
  8
2
  6
Continuous
 62
   174
100
AcDbCircle
 10
290.25
 20
571.75
 30
0.0
 40
3.55
100
AcDbArc
 50
-56.572065
 51
49.377015
  0
ARC
  5
30F
100
AcDbEntity
  8
2
  6
Continuous
 62
   174
100
AcDbCircle
 10
290.25
 20
551.25
 30
0.0
 40
3.55
100
AcDbArc
 50
-56.572851
 51
56.572065
  0
ARC
  5
310
100
AcDbEntity
  8
2
  6
Continuous
 62
   174
100
AcDbCircle
 10
290.25
 20
530.75
 30
0.0
 40
3.55
100
AcDbArc
 50
-56.572065
 51
56.572851
  0
LINE
  5
311
100
AcDbEntity
  8
2
  6
Continuous
 62
   174
100
AcDbLine
 10
292.450777
 20
507.464488
 30
0.0
 11
284.294082
 21
501.020047
 31
0.0
  0
ARC
  5
312
100
AcDbEntity
  8
2
  6
Continuous
 62
   174
100
AcDbCircle
 10
285.1
 20
500.0
 30
0.0
 40
1.3
100
AcDbArc
 50
128.168949
 51
180.0
  0
ARC
  5
313
100
AcDbEntity
  8
2
  6
Continuous
 62
   174
100
AcDbCircle
 10
290.25
 20
510.25
 30
0.0
 40
3.55
100
AcDbArc
 50
-51.6888
 51
56.572065
  0
LINE
  5
314
100
AcDbEntity
  8
2
  6
Continuous
 62
   174
100
AcDbLine
 10
290.25
 20
571.75
 30
0.0
 11
200.0
 21
571.75
 31
0.0
  0
LINE
  5
315
100
AcDbEntity
  8
2
  6
Continuous
 62
   174
100
AcDbLine
 10
285.25
 20
563.75
 30
0.0
 11
200.0
 21
563.75
 31
0.0
  0
LINE
  5
316
100
AcDbEntity
  8
2
  6
CENTER
 62
   174
100
AcDbLine
 10
200.0
 20
561.5
 30
0.0
 11
290.25
 21
561.5
 31
0.0
  0
LINE
  5
317
100
AcDbEntity
  8
2
  6
Continuous
 62
   174
100
AcDbLine
 10
285.25
 20
559.25
 30
0.0
 11
200.0
 21
559.25
 31
0.0
  0
LINE
  5
318
100
AcDbEntity
  8
2
  6
Continuous
 62
   174
100
AcDbLine
 10
290.25
 20
551.25
 30
0.0
 11
200.0
 21
551.25
 31
0.0
  0
LINE
  5
319
100
AcDbEntity
  8
2
  6
CENTER
 62
   174
100
AcDbLine
 10
200.0
 20
541.0
 30
0.0
 11
290.25
 21
541.0
 31
0.0
  0
LINE
  5
31A
100
AcDbEntity
  8
2
  6
Continuous
 62
   174
100
AcDbLine
 10
285.25
 20
543.25
 30
0.0
 11
200.0
 21
543.25
 31
0.0
  0
LINE
  5
31B
100
AcDbEntity
  8
2
  6
Continuous
 62
   174
100
AcDbLine
 10
285.25
 20
538.75
 30
0.0
 11
200.0
 21
538.75
 31
0.0
  0
LINE
  5
31C
100
AcDbEntity
  8
2
  6
Continuous
 62
   174
100
AcDbLine
 10
290.25
 20
530.75
 30
0.0
 11
200.0
 21
530.75
 31
0.0
  0
LINE
  5
31D
100
AcDbEntity
  8
2
  6
Continuous
 62
   174
100
AcDbLine
 10
285.25
 20
522.75
 30
0.0
 11
200.0
 21
522.75
 31
0.0
  0
LINE
  5
31E
100
AcDbEntity
  8
2
  6
CENTER
 62
   174
100
AcDbLine
 10
200.0
 20
520.5
 30
0.0
 11
290.25
 21
520.5
 31
0.0
  0
LINE
  5
31F
100
AcDbEntity
  8
2
  6
Continuous
 62
   174
100
AcDbLine
 10
285.25
 20
518.25
 30
0.0
 11
200.0
 21
518.25
 31
0.0
  0
LINE
  5
320
100
AcDbEntity
  8
2
  6
Continuous
 62
   174
100
AcDbLine
 10
290.25
 20
510.25
 30
0.0
 11
200.0
 21
510.25
 31
0.0
  0
ARC
  5
321
100
AcDbEntity
  8
2
  6
Continuous
 62
   174
100
AcDbCircle
 10
285.25
 20
520.5
 30
0.0
 40
2.25
100
AcDbArc
 50
-90.0
 51
90.0
  0
LINE
  5
322
100
AcDbEntity
  8
2
  6
Continuous
 62
   174
100
AcDbLine
 10
292.205651
 20
513.212757
 30
0.0
 11
284.57437
 21
518.25
 31
0.0
  0
LINE
  5
323
100
AcDbEntity
  8
2
  6
Continuous
 62
   174
100
AcDbLine
 10
284.57437
 20
522.75
 30
0.0
 11
292.205651
 21
527.787243
 31
0.0
  0
ARC
  5
324
100
AcDbEntity
  8
2
  6
Continuous
 62
   174
100
AcDbCircle
 10
285.25
 20
541.0
 30
0.0
 40
2.25
100
AcDbArc
 50
-90.0
 51
90.0
  0
LINE
  5
325
100
AcDbEntity
  8
2
  6
Continuous
 62
   174
100
AcDbLine
 10
284.57437
 20
538.75
 30
0.0
 11
292.205651
 21
533.712757
 31
0.0
  0
LINE
  5
326
100
AcDbEntity
  8
2
  6
Continuous
 62
   174
100
AcDbLine
 10
284.57437
 20
543.25
 30
0.0
 11
292.205651
 21
548.287243
 31
0.0
  0
ARC
  5
327
100
AcDbEntity
  8
2
  6
Continuous
 62
   174
100
AcDbCircle
 10
285.25
 20
561.5
 30
0.0
 40
2.25
100
AcDbArc
 50
-90.0
 51
90.0
  0
LINE
  5
328
100
AcDbEntity
  8
2
  6
Continuous
 62
   174
100
AcDbLine
 10
292.205651
 20
568.787243
 30
0.0
 11
284.57437
 21
563.75
 31
0.0
  0
LINE
  5
329
100
AcDbEntity
  8
2
  6
Continuous
 62
   174
100
AcDbLine
 10
284.57437
 20
559.25
 30
0.0
 11
292.205651
 21
554.212757
 31
0.0
  0
LINE
  5
32A
100
AcDbEntity
  8
2
  6
CENTER
 62
   174
100
AcDbLine
 10
293.8
 20
530.75
 30
0.0
 11
293.8
 21
551.25
 31
0.0
  0
LINE
  5
32B
100
AcDbEntity
  8
2
  6
Continuous
 62
   174
100
AcDbLine
 10
292.250556
 20
797.0
 30
0.0
 11
200.0
 21
797.0
 31
0.0
  0
LINE
  5
32C
100
AcDbEntity
  8
2
  6
Continuous
 62
   174
100
AcDbLine
 10
282.5
 20
300.0
 30
0.0
 11
200.0
 21
300.0
 31
0.0
  0
LINE
  5
32D
100
AcDbEntity
  8
2
  6
Continuous
 62
   174
100
AcDbLine
 10
582.5
 20
450.0
 30
0.0
 11
582.5
 21
300.0
 31
0.0
  0
LINE
  5
32E
100
AcDbEntity
  8
2
  6
Continuous
 62
   174
100
AcDbLine
 10
590.653567
 20
678.270993
 30
0.0
 11
500.0
 21
678.270993
 31
0.0
  0
LINE
  5
32F
100
AcDbEntity
  8
2
  6
Continuous
 62
   174
100
AcDbLine
 10
582.5
 20
670.073295
 30
0.0
 11
500.0
 21
670.073295
 31
0.0
  0
LINE
  5
330
100
AcDbEntity
  8
2
  6
Continuous
 62
   174
100
AcDbLine
 10
582.5
 20
670.073295
 30
0.0
 11
590.653567
 21
678.270993
 31
0.0
  0
LINE
  5
331
100
AcDbEntity
  8
2
  6
Continuous
 62
   174
100
AcDbLine
 10
592.250556
 20
822.0
 30
0.0
 11
590.653567
 21
678.270993
 31
0.0
  0
LINE
  5
332
100
AcDbEntity
  8
2
  6
Continuous
 62
   174
100
AcDbLine
 10
582.5
 20
657.0
 30
0.0
 11
582.5
 21
670.073295
 31
0.0
  0
LINE
  5
333
100
AcDbEntity
  8
2
  6
Continuous
 62
   174
100
AcDbLine
 10
589.45
 20
607.0
 30
0.0
 11
589.45
 21
657.0
 31
0.0
  0
LINE
  5
334
100
AcDbEntity
  8
2
  6
Continuous
 62
   174
100
AcDbLine
 10
588.8
 20
500.0
 30
0.0
 11
588.8
 21
450.0
 31
0.0
  0
LINE
  5
335
100
AcDbEntity
  8
2
  6
Continuous
 62
   174
100
AcDbLine
 10
589.45
 20
657.0
 30
0.0
 11
500.0
 21
657.0
 31
0.0
  0
LINE
  5
336
100
AcDbEntity
  8
2
  6
Continuous
 62
   174
100
AcDbLine
 10
589.45
 20
607.0
 30
0.0
 11
500.0
 21
607.0
 31
0.0
  0
LINE
  5
337
100
AcDbEntity
  8
2
  6
Continuous
 62
   174
100
AcDbLine
 10
588.8
 20
500.0
 30
0.0
 11
500.0
 21
500.0
 31
0.0
  0
LINE
  5
338
100
AcDbEntity
  8
2
  6
Continuous
 62
   174
100
AcDbLine
 10
588.8
 20
450.0
 30
0.0
 11
500.0
 21
450.0
 31
0.0
  0
LINE
  5
339
100
AcDbEntity
  8
2
  6
Continuous
 62
   174
100
AcDbLine
 10
584.903598
 20
606.013287
 30
0.0
 11
592.56133
 21
599.444486
 31
0.0
  0
ARC
  5
33A
100
AcDbEntity
  8
2
  6
Continuous
 62
   174
100
AcDbCircle
 10
590.25
 20
596.75
 30
0.0
 40
3.55
100
AcDbArc
 50
-56.444026
 51
49.377015
  0
ARC
  5
33B
100
AcDbEntity
  8
2
  6
Continuous
 62
   174
100
AcDbCircle
 10
590.25
 20
576.25
 30
0.0
 40
3.55
100
AcDbArc
 50
-56.649564
 51
56.891645
  0
ARC
  5
33C
100
AcDbEntity
  8
2
  6
Continuous
 62
   174
100
AcDbCircle
 10
585.75
 20
607.0
 30
0.0
 40
1.3
100
AcDbArc
 50
180.0
 51
-130.622985
  0
LINE
  5
33D
100
AcDbEntity
  8
2
  6
Continuous
 62
   174
100
AcDbLine
 10
590.25
 20
596.75
 30
0.0
 11
500.0
 21
596.75
 31
0.0
  0
LINE
  5
33E
100
AcDbEntity
  8
2
  6
Continuous
 62
   174
100
AcDbLine
 10
585.25
 20
588.75
 30
0.0
 11
500.0
 21
588.75
 31
0.0
  0
LINE
  5
33F
100
AcDbEntity
  8
2
  6
CENTER
 62
   174
100
AcDbLine
 10
500.0
 20
586.5
 30
0.0
 11
590.25
 21
586.5
 31
0.0
  0
LINE
  5
340
100
AcDbEntity
  8
2
  6
Continuous
 62
   174
100
AcDbLine
 10
585.25
 20
584.25
 30
0.0
 11
500.0
 21
584.25
 31
0.0
  0
LINE
  5
341
100
AcDbEntity
  8
2
  6
Continuous
 62
   174
100
AcDbLine
 10
590.25
 20
576.25
 30
0.0
 11
500.0
 21
576.25
 31
0.0
  0
LINE
  5
342
100
AcDbEntity
  8
2
  6
Continuous
 62
   174
100
AcDbLine
 10
585.25
 20
568.25
 30
0.0
 11
500.0
 21
568.25
 31
0.0
  0
LINE
  5
343
100
AcDbEntity
  8
2
  6
CENTER
 62
   174
100
AcDbLine
 10
500.0
 20
566.0
 30
0.0
 11
590.25
 21
566.0
 31
0.0
  0
LINE
  5
344
100
AcDbEntity
  8
2
  6
Continuous
 62
   174
100
AcDbLine
 10
585.25
 20
563.75
 30
0.0
 11
500.0
 21
563.75
 31
0.0
  0
ARC
  5
345
100
AcDbEntity
  8
2
  6
Continuous
 62
   174
100
AcDbCircle
 10
585.25
 20
586.5
 30
0.0
 40
2.25
100
AcDbArc
 50
-90.0
 51
90.0
  0
LINE
  5
346
100
AcDbEntity
  8
2
  6
Continuous
 62
   174
100
AcDbLine
 10
584.57437
 20
584.25
 30
0.0
 11
592.205651
 21
579.212757
 31
0.0
  0
LINE
  5
347
100
AcDbEntity
  8
2
  6
Continuous
 62
   174
100
AcDbLine
 10
584.57437
 20
588.75
 30
0.0
 11
592.205651
 21
593.787243
 31
0.0
  0
LINE
  5
348
100
AcDbEntity
  8
2
  6
Continuous
 62
   174
100
AcDbLine
 10
584.57437
 20
568.25
 30
0.0
 11
592.205651
 21
573.287243
 31
0.0
  0
ARC
  5
349
100
AcDbEntity
  8
2
  6
Continuous
 62
   174
100
AcDbCircle
 10
585.25
 20
566.0
 30
0.0
 40
2.25
100
AcDbArc
 50
-90.0
 51
90.0
  0
LINE
  5
34A
100
AcDbEntity
  8
2
  6
Continuous
 62
   174
100
AcDbLine
 10
584.57437
 20
563.75
 30
0.0
 11
588.929914
 21
560.875
 31
0.0
  0
LINE
  5
34B
100
AcDbEntity
  8
2
  6
Continuous
 62
   174
100
AcDbLine
 10
584.903598
 20
500.986713
 30
0.0
 11
592.56133
 21
507.555514
 31
0.0
  0
ARC
  5
34C
100
AcDbEntity
  8
2
  6
Continuous
 62
   174
100
AcDbCircle
 10
590.25
 20
510.25
 30
0.0
 40
3.55
100
AcDbArc
 50
-49.377015
 51
56.444026
  0
ARC
  5
34D
100
AcDbEntity
  8
2
  6
Continuous
 62
   174
100
AcDbCircle
 10
590.25
 20
530.75
 30
0.0
 40
3.55
100
AcDbArc
 50
-56.891645
 51
56.649564
  0
ARC
  5
34E
100
AcDbEntity
  8
2
  6
Continuous
 62
   174
100
AcDbCircle
 10
585.75
 20
500.0
 30
0.0
 40
1.3
100
AcDbArc
 50
130.622985
 51
180.0
  0
LINE
  5
34F
100
AcDbEntity
  8
2
  6
Continuous
 62
   174
100
AcDbLine
 10
590.25
 20
510.25
 30
0.0
 11
500.0
 21
510.25
 31
0.0
  0
LINE
  5
350
100
AcDbEntity
  8
2
  6
Continuous
 62
   174
100
AcDbLine
 10
585.25
 20
518.25
 30
0.0
 11
500.0
 21
518.25
 31
0.0
  0
LINE
  5
351
100
AcDbEntity
  8
2
  6
CENTER
 62
   174
100
AcDbLine
 10
500.0
 20
520.5
 30
0.0
 11
590.25
 21
520.5
 31
0.0
  0
LINE
  5
352
100
AcDbEntity
  8
2
  6
Continuous
 62
   174
100
AcDbLine
 10
585.25
 20
522.75
 30
0.0
 11
500.0
 21
522.75
 31
0.0
  0
LINE
  5
353
100
AcDbEntity
  8
2
  6
Continuous
 62
   174
100
AcDbLine
 10
590.25
 20
530.75
 30
0.0
 11
500.0
 21
530.75
 31
0.0
  0
LINE
  5
354
100
AcDbEntity
  8
2
  6
Continuous
 62
   174
100
AcDbLine
 10
585.25
 20
538.75
 30
0.0
 11
500.0
 21
538.75
 31
0.0
  0
LINE
  5
355
100
AcDbEntity
  8
2
  6
CENTER
 62
   174
100
AcDbLine
 10
500.0
 20
541.0
 30
0.0
 11
590.25
 21
541.0
 31
0.0
  0
LINE
  5
356
100
AcDbEntity
  8
2
  6
Continuous
 62
   174
100
AcDbLine
 10
585.25
 20
543.25
 30
0.0
 11
500.0
 21
543.25
 31
0.0
  0
ARC
  5
357
100
AcDbEntity
  8
2
  6
Continuous
 62
   174
100
AcDbCircle
 10
585.25
 20
520.5
 30
0.0
 40
2.25
100
AcDbArc
 50
-90.0
 51
90.0
  0
LINE
  5
358
100
AcDbEntity
  8
2
  6
Continuous
 62
   174
100
AcDbLine
 10
584.57437
 20
522.75
 30
0.0
 11
592.205651
 21
527.787243
 31
0.0
  0
LINE
  5
359
100
AcDbEntity
  8
2
  6
Continuous
 62
   174
100
AcDbLine
 10
584.57437
 20
518.25
 30
0.0
 11
592.205651
 21
513.212757
 31
0.0
  0
LINE
  5
35A
100
AcDbEntity
  8
2
  6
Continuous
 62
   174
100
AcDbLine
 10
584.57437
 20
538.75
 30
0.0
 11
592.205651
 21
533.712757
 31
0.0
  0
ARC
  5
35B
100
AcDbEntity
  8
2
  6
Continuous
 62
   174
100
AcDbCircle
 10
585.25
 20
541.0
 30
0.0
 40
2.25
100
AcDbArc
 50
-90.0
 51
90.0
  0
LINE
  5
35C
100
AcDbEntity
  8
2
  6
Continuous
 62
   174
100
AcDbLine
 10
584.57437
 20
543.25
 30
0.0
 11
588.929914
 21
546.125
 31
0.0
  0
LINE
  5
35D
100
AcDbEntity
  8
2
  6
CENTER
 62
   174
100
AcDbLine
 10
593.8
 20
576.25
 30
0.0
 11
593.8
 21
530.75
 31
0.0
  0
LINE
  5
35E
100
AcDbEntity
  8
2
  6
Continuous
 62
   174
100
AcDbLine
 10
592.250556
 20
822.0
 30
0.0
 11
500.0
 21
822.0
 31
0.0
  0
LINE
  5
35F
100
AcDbEntity
  8
2
  6
Continuous
 62
   174
100
AcDbLine
 10
582.5
 20
300.0
 30
0.0
 11
500.0
 21
300.0
 31
0.0
  0
LINE
  5
360
100
AcDbEntity
  8
2
  6
Continuous
 62
   174
100
AcDbLine
 10
882.5
 20
450.0
 30
0.0
 11
882.5
 21
300.0
 31
0.0
  0
LINE
  5
361
100
AcDbEntity
  8
2
  6
Continuous
 62
   174
100
AcDbLine
 10
888.8
 20
500.0
 30
0.0
 11
888.8
 21
450.0
 31
0.0
  0
LINE
  5
362
100
AcDbEntity
  8
2
  6
Continuous
 62
   174
100
AcDbLine
 10
888.8
 20
500.0
 30
0.0
 11
800.0
 21
500.0
 31
0.0
  0
LINE
  5
363
100
AcDbEntity
  8
2
  6
Continuous
 62
   174
100
AcDbLine
 10
888.8
 20
450.0
 30
0.0
 11
800.0
 21
450.0
 31
0.0
  0
LINE
  5
364
100
AcDbEntity
  8
2
  6
Continuous
 62
   174
100
AcDbLine
 10
884.903598
 20
500.986713
 30
0.0
 11
892.56133
 21
507.555514
 31
0.0
  0
ARC
  5
365
100
AcDbEntity
  8
2
  6
Continuous
 62
   174
100
AcDbCircle
 10
890.25
 20
510.25
 30
0.0
 40
3.55
100
AcDbArc
 50
-49.377015
 51
56.444026
  0
ARC
  5
366
100
AcDbEntity
  8
2
  6
Continuous
 62
   174
100
AcDbCircle
 10
890.25
 20
530.75
 30
0.0
 40
3.55
100
AcDbArc
 50
-56.891645
 51
56.649564
  0
ARC
  5
367
100
AcDbEntity
  8
2
  6
Continuous
 62
   174
100
AcDbCircle
 10
885.75
 20
500.0
 30
0.0
 40
1.3
100
AcDbArc
 50
130.622985
 51
180.0
  0
LINE
  5
368
100
AcDbEntity
  8
2
  6
Continuous
 62
   174
100
AcDbLine
 10
890.25
 20
510.25
 30
0.0
 11
800.0
 21
510.25
 31
0.0
  0
LINE
  5
369
100
AcDbEntity
  8
2
  6
Continuous
 62
   174
100
AcDbLine
 10
885.25
 20
518.25
 30
0.0
 11
800.0
 21
518.25
 31
0.0
  0
LINE
  5
36A
100
AcDbEntity
  8
2
  6
CENTER
 62
   174
100
AcDbLine
 10
800.0
 20
520.5
 30
0.0
 11
890.25
 21
520.5
 31
0.0
  0
LINE
  5
36B
100
AcDbEntity
  8
2
  6
Continuous
 62
   174
100
AcDbLine
 10
885.25
 20
522.75
 30
0.0
 11
800.0
 21
522.75
 31
0.0
  0
LINE
  5
36C
100
AcDbEntity
  8
2
  6
Continuous
 62
   174
100
AcDbLine
 10
890.25
 20
530.75
 30
0.0
 11
800.0
 21
530.75
 31
0.0
  0
LINE
  5
36D
100
AcDbEntity
  8
2
  6
Continuous
 62
   174
100
AcDbLine
 10
885.25
 20
538.75
 30
0.0
 11
800.0
 21
538.75
 31
0.0
  0
LINE
  5
36E
100
AcDbEntity
  8
2
  6
CENTER
 62
   174
100
AcDbLine
 10
800.0
 20
541.0
 30
0.0
 11
890.25
 21
541.0
 31
0.0
  0
LINE
  5
36F
100
AcDbEntity
  8
2
  6
Continuous
 62
   174
100
AcDbLine
 10
885.25
 20
543.25
 30
0.0
 11
800.0
 21
543.25
 31
0.0
  0
ARC
  5
370
100
AcDbEntity
  8
2
  6
Continuous
 62
   174
100
AcDbCircle
 10
885.25
 20
520.5
 30
0.0
 40
2.25
100
AcDbArc
 50
-90.0
 51
90.0
  0
LINE
  5
371
100
AcDbEntity
  8
2
  6
Continuous
 62
   174
100
AcDbLine
 10
884.57437
 20
522.75
 30
0.0
 11
892.205651
 21
527.787243
 31
0.0
  0
LINE
  5
372
100
AcDbEntity
  8
2
  6
Continuous
 62
   174
100
AcDbLine
 10
884.57437
 20
518.25
 30
0.0
 11
892.205651
 21
513.212757
 31
0.0
  0
LINE
  5
373
100
AcDbEntity
  8
2
  6
Continuous
 62
   174
100
AcDbLine
 10
884.57437
 20
538.75
 30
0.0
 11
892.205651
 21
533.712757
 31
0.0
  0
ARC
  5
374
100
AcDbEntity
  8
2
  6
Continuous
 62
   174
100
AcDbCircle
 10
885.25
 20
541.0
 30
0.0
 40
2.25
100
AcDbArc
 50
-90.0
 51
90.0
  0
LINE
  5
375
100
AcDbEntity
  8
2
  6
Continuous
 62
   174
100
AcDbLine
 10
884.57437
 20
543.25
 30
0.0
 11
888.929914
 21
546.125
 31
0.0
  0
LINE
  5
376
100
AcDbEntity
  8
2
  6
Continuous
 62
   174
100
AcDbLine
 10
890.653567
 20
698.270993
 30
0.0
 11
800.0
 21
698.270993
 31
0.0
  0
LINE
  5
377
100
AcDbEntity
  8
2
  6
Continuous
 62
   174
100
AcDbLine
 10
882.5
 20
690.073295
 30
0.0
 11
800.0
 21
690.073295
 31
0.0
  0
LINE
  5
378
100
AcDbEntity
  8
2
  6
Continuous
 62
   174
100
AcDbLine
 10
882.5
 20
690.073295
 30
0.0
 11
890.653567
 21
698.270993
 31
0.0
  0
LINE
  5
379
100
AcDbEntity
  8
2
  6
Continuous
 62
   174
100
AcDbLine
 10
892.250556
 20
842.0
 30
0.0
 11
890.653567
 21
698.270993
 31
0.0
  0
LINE
  5
37A
100
AcDbEntity
  8
2
  6
Continuous
 62
   174
100
AcDbLine
 10
882.5
 20
677.0
 30
0.0
 11
882.5
 21
690.073295
 31
0.0
  0
LINE
  5
37B
100
AcDbEntity
  8
2
  6
Continuous
 62
   174
100
AcDbLine
 10
889.45
 20
627.0
 30
0.0
 11
889.45
 21
677.0
 31
0.0
  0
LINE
  5
37C
100
AcDbEntity
  8
2
  6
Continuous
 62
   174
100
AcDbLine
 10
889.45
 20
677.0
 30
0.0
 11
800.0
 21
677.0
 31
0.0
  0
LINE
  5
37D
100
AcDbEntity
  8
2
  6
Continuous
 62
   174
100
AcDbLine
 10
889.45
 20
627.0
 30
0.0
 11
800.0
 21
627.0
 31
0.0
  0
LINE
  5
37E
100
AcDbEntity
  8
2
  6
Continuous
 62
   174
100
AcDbLine
 10
884.903598
 20
626.013287
 30
0.0
 11
892.56133
 21
619.444486
 31
0.0
  0
ARC
  5
37F
100
AcDbEntity
  8
2
  6
Continuous
 62
   174
100
AcDbCircle
 10
890.25
 20
616.75
 30
0.0
 40
3.55
100
AcDbArc
 50
-56.444026
 51
49.377015
  0
ARC
  5
380
100
AcDbEntity
  8
2
  6
Continuous
 62
   174
100
AcDbCircle
 10
890.25
 20
596.25
 30
0.0
 40
3.55
100
AcDbArc
 50
-56.649564
 51
56.891645
  0
ARC
  5
381
100
AcDbEntity
  8
2
  6
Continuous
 62
   174
100
AcDbCircle
 10
885.75
 20
627.0
 30
0.0
 40
1.3
100
AcDbArc
 50
180.0
 51
-130.622985
  0
LINE
  5
382
100
AcDbEntity
  8
2
  6
Continuous
 62
   174
100
AcDbLine
 10
890.25
 20
616.75
 30
0.0
 11
800.0
 21
616.75
 31
0.0
  0
LINE
  5
383
100
AcDbEntity
  8
2
  6
Continuous
 62
   174
100
AcDbLine
 10
885.25
 20
608.75
 30
0.0
 11
800.0
 21
608.75
 31
0.0
  0
LINE
  5
384
100
AcDbEntity
  8
2
  6
CENTER
 62
   174
100
AcDbLine
 10
800.0
 20
606.5
 30
0.0
 11
890.25
 21
606.5
 31
0.0
  0
LINE
  5
385
100
AcDbEntity
  8
2
  6
Continuous
 62
   174
100
AcDbLine
 10
885.25
 20
604.25
 30
0.0
 11
800.0
 21
604.25
 31
0.0
  0
LINE
  5
386
100
AcDbEntity
  8
2
  6
Continuous
 62
   174
100
AcDbLine
 10
890.25
 20
596.25
 30
0.0
 11
800.0
 21
596.25
 31
0.0
  0
LINE
  5
387
100
AcDbEntity
  8
2
  6
Continuous
 62
   174
100
AcDbLine
 10
885.25
 20
588.25
 30
0.0
 11
800.0
 21
588.25
 31
0.0
  0
LINE
  5
388
100
AcDbEntity
  8
2
  6
CENTER
 62
   174
100
AcDbLine
 10
800.0
 20
586.0
 30
0.0
 11
890.25
 21
586.0
 31
0.0
  0
LINE
  5
389
100
AcDbEntity
  8
2
  6
Continuous
 62
   174
100
AcDbLine
 10
885.25
 20
583.75
 30
0.0
 11
800.0
 21
583.75
 31
0.0
  0
ARC
  5
38A
100
AcDbEntity
  8
2
  6
Continuous
 62
   174
100
AcDbCircle
 10
885.25
 20
606.5
 30
0.0
 40
2.25
100
AcDbArc
 50
-90.0
 51
90.0
  0
LINE
  5
38B
100
AcDbEntity
  8
2
  6
Continuous
 62
   174
100
AcDbLine
 10
884.57437
 20
604.25
 30
0.0
 11
892.205651
 21
599.212757
 31
0.0
  0
LINE
  5
38C
100
AcDbEntity
  8
2
  6
Continuous
 62
   174
100
AcDbLine
 10
884.57437
 20
608.75
 30
0.0
 11
892.205651
 21
613.787243
 31
0.0
  0
LINE
  5
38D
100
AcDbEntity
  8
2
  6
Continuous
 62
   174
100
AcDbLine
 10
884.57437
 20
588.25
 30
0.0
 11
892.205651
 21
593.287243
 31
0.0
  0
ARC
  5
38E
100
AcDbEntity
  8
2
  6
Continuous
 62
   174
100
AcDbCircle
 10
885.25
 20
586.0
 30
0.0
 40
2.25
100
AcDbArc
 50
-90.0
 51
90.0
  0
LINE
  5
38F
100
AcDbEntity
  8
2
  6
Continuous
 62
   174
100
AcDbLine
 10
884.57437
 20
583.75
 30
0.0
 11
888.929914
 21
580.875
 31
0.0
  0
LINE
  5
390
100
AcDbEntity
  8
2
  6
CENTER
 62
   174
100
AcDbLine
 10
893.8
 20
596.25
 30
0.0
 11
893.8
 21
530.75
 31
0.0
  0
LINE
  5
391
100
AcDbEntity
  8
2
  6
Continuous
 62
   174
100
AcDbLine
 10
892.250556
 20
842.0
 30
0.0
 11
800.0
 21
842.0
 31
0.0
  0
LINE
  5
392
100
AcDbEntity
  8
2
  6
Continuous
 62
   174
100
AcDbLine
 10
882.5
 20
300.0
 30
0.0
 11
800.0
 21
300.0
 31
0.0
  0
LINE
  5
393
100
AcDbEntity
  8
2
  6
Continuous
 62
   174
100
AcDbLine
 10
1182.5
 20
450.0
 30
0.0
 11
1182.5
 21
300.0
 31
0.0
  0
LINE
  5
394
100
AcDbEntity
  8
2
  6
Continuous
 62
   174
100
AcDbLine
 10
1188.8
 20
500.0
 30
0.0
 11
1188.8
 21
450.0
 31
0.0
  0
LINE
  5
395
100
AcDbEntity
  8
2
  6
Continuous
 62
   174
100
AcDbLine
 10
1188.8
 20
500.0
 30
0.0
 11
1100.0
 21
500.0
 31
0.0
  0
LINE
  5
396
100
AcDbEntity
  8
2
  6
Continuous
 62
   174
100
AcDbLine
 10
1188.8
 20
450.0
 30
0.0
 11
1100.0
 21
450.0
 31
0.0
  0
LINE
  5
397
100
AcDbEntity
  8
2
  6
Continuous
 62
   174
100
AcDbLine
 10
1184.903598
 20
500.986713
 30
0.0
 11
1192.56133
 21
507.555514
 31
0.0
  0
ARC
  5
398
100
AcDbEntity
  8
2
  6
Continuous
 62
   174
100
AcDbCircle
 10
1190.25
 20
510.25
 30
0.0
 40
3.55
100
AcDbArc
 50
-49.377015
 51
56.444026
  0
ARC
  5
399
100
AcDbEntity
  8
2
  6
Continuous
 62
   174
100
AcDbCircle
 10
1190.25
 20
530.75
 30
0.0
 40
3.55
100
AcDbArc
 50
-56.891645
 51
56.649564
  0
ARC
  5
39A
100
AcDbEntity
  8
2
  6
Continuous
 62
   174
100
AcDbCircle
 10
1185.75
 20
500.0
 30
0.0
 40
1.3
100
AcDbArc
 50
130.622985
 51
180.0
  0
LINE
  5
39B
100
AcDbEntity
  8
2
  6
Continuous
 62
   174
100
AcDbLine
 10
1190.25
 20
510.25
 30
0.0
 11
1100.0
 21
510.25
 31
0.0
  0
LINE
  5
39C
100
AcDbEntity
  8
2
  6
Continuous
 62
   174
100
AcDbLine
 10
1185.25
 20
518.25
 30
0.0
 11
1100.0
 21
518.25
 31
0.0
  0
LINE
  5
39D
100
AcDbEntity
  8
2
  6
CENTER
 62
   174
100
AcDbLine
 10
1100.0
 20
520.5
 30
0.0
 11
1190.25
 21
520.5
 31
0.0
  0
LINE
  5
39E
100
AcDbEntity
  8
2
  6
Continuous
 62
   174
100
AcDbLine
 10
1185.25
 20
522.75
 30
0.0
 11
1100.0
 21
522.75
 31
0.0
  0
LINE
  5
39F
100
AcDbEntity
  8
2
  6
Continuous
 62
   174
100
AcDbLine
 10
1190.25
 20
530.75
 30
0.0
 11
1100.0
 21
530.75
 31
0.0
  0
LINE
  5
3A0
100
AcDbEntity
  8
2
  6
Continuous
 62
   174
100
AcDbLine
 10
1185.25
 20
538.75
 30
0.0
 11
1100.0
 21
538.75
 31
0.0
  0
LINE
  5
3A1
100
AcDbEntity
  8
2
  6
CENTER
 62
   174
100
AcDbLine
 10
1100.0
 20
541.0
 30
0.0
 11
1190.25
 21
541.0
 31
0.0
  0
LINE
  5
3A2
100
AcDbEntity
  8
2
  6
Continuous
 62
   174
100
AcDbLine
 10
1185.25
 20
543.25
 30
0.0
 11
1100.0
 21
543.25
 31
0.0
  0
ARC
  5
3A3
100
AcDbEntity
  8
2
  6
Continuous
 62
   174
100
AcDbCircle
 10
1185.25
 20
520.5
 30
0.0
 40
2.25
100
AcDbArc
 50
-90.0
 51
90.0
  0
LINE
  5
3A4
100
AcDbEntity
  8
2
  6
Continuous
 62
   174
100
AcDbLine
 10
1184.57437
 20
522.75
 30
0.0
 11
1192.205651
 21
527.787243
 31
0.0
  0
LINE
  5
3A5
100
AcDbEntity
  8
2
  6
Continuous
 62
   174
100
AcDbLine
 10
1184.57437
 20
518.25
 30
0.0
 11
1192.205651
 21
513.212757
 31
0.0
  0
LINE
  5
3A6
100
AcDbEntity
  8
2
  6
Continuous
 62
   174
100
AcDbLine
 10
1184.57437
 20
538.75
 30
0.0
 11
1192.205651
 21
533.712757
 31
0.0
  0
ARC
  5
3A7
100
AcDbEntity
  8
2
  6
Continuous
 62
   174
100
AcDbCircle
 10
1185.25
 20
541.0
 30
0.0
 40
2.25
100
AcDbArc
 50
-90.0
 51
90.0
  0
LINE
  5
3A8
100
AcDbEntity
  8
2
  6
Continuous
 62
   174
100
AcDbLine
 10
1184.57437
 20
543.25
 30
0.0
 11
1188.929914
 21
546.125
 31
0.0
  0
LINE
  5
3A9
100
AcDbEntity
  8
2
  6
Continuous
 62
   174
100
AcDbLine
 10
1190.653567
 20
723.270993
 30
0.0
 11
1100.0
 21
723.270993
 31
0.0
  0
LINE
  5
3AA
100
AcDbEntity
  8
2
  6
Continuous
 62
   174
100
AcDbLine
 10
1182.5
 20
715.073295
 30
0.0
 11
1100.0
 21
715.073295
 31
0.0
  0
LINE
  5
3AB
100
AcDbEntity
  8
2
  6
Continuous
 62
   174
100
AcDbLine
 10
1182.5
 20
715.073295
 30
0.0
 11
1190.653567
 21
723.270993
 31
0.0
  0
LINE
  5
3AC
100
AcDbEntity
  8
2
  6
Continuous
 62
   174
100
AcDbLine
 10
1192.250556
 20
867.0
 30
0.0
 11
1190.653567
 21
723.270993
 31
0.0
  0
LINE
  5
3AD
100
AcDbEntity
  8
2
  6
Continuous
 62
   174
100
AcDbLine
 10
1182.5
 20
702.0
 30
0.0
 11
1182.5
 21
715.073295
 31
0.0
  0
LINE
  5
3AE
100
AcDbEntity
  8
2
  6
Continuous
 62
   174
100
AcDbLine
 10
1189.45
 20
652.0
 30
0.0
 11
1189.45
 21
702.0
 31
0.0
  0
LINE
  5
3AF
100
AcDbEntity
  8
2
  6
Continuous
 62
   174
100
AcDbLine
 10
1189.45
 20
702.0
 30
0.0
 11
1100.0
 21
702.0
 31
0.0
  0
LINE
  5
3B0
100
AcDbEntity
  8
2
  6
Continuous
 62
   174
100
AcDbLine
 10
1189.45
 20
652.0
 30
0.0
 11
1100.0
 21
652.0
 31
0.0
  0
LINE
  5
3B1
100
AcDbEntity
  8
2
  6
Continuous
 62
   174
100
AcDbLine
 10
1184.903598
 20
651.013287
 30
0.0
 11
1192.56133
 21
644.444486
 31
0.0
  0
ARC
  5
3B2
100
AcDbEntity
  8
2
  6
Continuous
 62
   174
100
AcDbCircle
 10
1190.25
 20
641.75
 30
0.0
 40
3.55
100
AcDbArc
 50
-56.444026
 51
49.377015
  0
ARC
  5
3B3
100
AcDbEntity
  8
2
  6
Continuous
 62
   174
100
AcDbCircle
 10
1190.25
 20
621.25
 30
0.0
 40
3.55
100
AcDbArc
 50
-56.649564
 51
56.891645
  0
ARC
  5
3B4
100
AcDbEntity
  8
2
  6
Continuous
 62
   174
100
AcDbCircle
 10
1185.75
 20
652.0
 30
0.0
 40
1.3
100
AcDbArc
 50
180.0
 51
-130.622985
  0
LINE
  5
3B5
100
AcDbEntity
  8
2
  6
Continuous
 62
   174
100
AcDbLine
 10
1190.25
 20
641.75
 30
0.0
 11
1100.0
 21
641.75
 31
0.0
  0
LINE
  5
3B6
100
AcDbEntity
  8
2
  6
Continuous
 62
   174
100
AcDbLine
 10
1185.25
 20
633.75
 30
0.0
 11
1100.0
 21
633.75
 31
0.0
  0
LINE
  5
3B7
100
AcDbEntity
  8
2
  6
CENTER
 62
   174
100
AcDbLine
 10
1100.0
 20
631.5
 30
0.0
 11
1190.25
 21
631.5
 31
0.0
  0
LINE
  5
3B8
100
AcDbEntity
  8
2
  6
Continuous
 62
   174
100
AcDbLine
 10
1185.25
 20
629.25
 30
0.0
 11
1100.0
 21
629.25
 31
0.0
  0
LINE
  5
3B9
100
AcDbEntity
  8
2
  6
Continuous
 62
   174
100
AcDbLine
 10
1190.25
 20
621.25
 30
0.0
 11
1100.0
 21
621.25
 31
0.0
  0
LINE
  5
3BA
100
AcDbEntity
  8
2
  6
Continuous
 62
   174
100
AcDbLine
 10
1185.25
 20
613.25
 30
0.0
 11
1100.0
 21
613.25
 31
0.0
  0
LINE
  5
3BB
100
AcDbEntity
  8
2
  6
CENTER
 62
   174
100
AcDbLine
 10
1100.0
 20
611.0
 30
0.0
 11
1190.25
 21
611.0
 31
0.0
  0
LINE
  5
3BC
100
AcDbEntity
  8
2
  6
Continuous
 62
   174
100
AcDbLine
 10
1185.25
 20
608.75
 30
0.0
 11
1100.0
 21
608.75
 31
0.0
  0
ARC
  5
3BD
100
AcDbEntity
  8
2
  6
Continuous
 62
   174
100
AcDbCircle
 10
1185.25
 20
631.5
 30
0.0
 40
2.25
100
AcDbArc
 50
-90.0
 51
90.0
  0
LINE
  5
3BE
100
AcDbEntity
  8
2
  6
Continuous
 62
   174
100
AcDbLine
 10
1184.57437
 20
629.25
 30
0.0
 11
1192.205651
 21
624.212757
 31
0.0
  0
LINE
  5
3BF
100
AcDbEntity
  8
2
  6
Continuous
 62
   174
100
AcDbLine
 10
1184.57437
 20
633.75
 30
0.0
 11
1192.205651
 21
638.787243
 31
0.0
  0
LINE
  5
3C0
100
AcDbEntity
  8
2
  6
Continuous
 62
   174
100
AcDbLine
 10
1184.57437
 20
613.25
 30
0.0
 11
1192.205651
 21
618.287243
 31
0.0
  0
ARC
  5
3C1
100
AcDbEntity
  8
2
  6
Continuous
 62
   174
100
AcDbCircle
 10
1185.25
 20
611.0
 30
0.0
 40
2.25
100
AcDbArc
 50
-90.0
 51
90.0
  0
LINE
  5
3C2
100
AcDbEntity
  8
2
  6
Continuous
 62
   174
100
AcDbLine
 10
1184.57437
 20
608.75
 30
0.0
 11
1188.929914
 21
605.875
 31
0.0
  0
LINE
  5
3C3
100
AcDbEntity
  8
2
  6
CENTER
 62
   174
100
AcDbLine
 10
1193.8
 20
621.25
 30
0.0
 11
1193.8
 21
530.75
 31
0.0
  0
LINE
  5
3C4
100
AcDbEntity
  8
2
  6
Continuous
 62
   174
100
AcDbLine
 10
1182.5
 20
300.0
 30
0.0
 11
1100.0
 21
300.0
 31
0.0
  0
LINE
  5
3C5
100
AcDbEntity
  8
2
  6
Continuous
 62
   174
100
AcDbLine
 10
1192.250556
 20
867.0
 30
0.0
 11
1100.0
 21
867.0
 31
0.0
  0
LINE
  5
3C6
100
AcDbEntity
  8
2
  6
Continuous
 62
   174
100
AcDbLine
 10
1482.5
 20
450.0
 30
0.0
 11
1482.5
 21
300.0
 31
0.0
  0
LINE
  5
3C7
100
AcDbEntity
  8
2
  6
Continuous
 62
   174
100
AcDbLine
 10
1488.8
 20
500.0
 30
0.0
 11
1488.8
 21
450.0
 31
0.0
  0
LINE
  5
3C8
100
AcDbEntity
  8
2
  6
Continuous
 62
   174
100
AcDbLine
 10
1488.8
 20
500.0
 30
0.0
 11
1400.0
 21
500.0
 31
0.0
  0
LINE
  5
3C9
100
AcDbEntity
  8
2
  6
Continuous
 62
   174
100
AcDbLine
 10
1488.8
 20
450.0
 30
0.0
 11
1400.0
 21
450.0
 31
0.0
  0
LINE
  5
3CA
100
AcDbEntity
  8
2
  6
Continuous
 62
   174
100
AcDbLine
 10
1484.903598
 20
500.986713
 30
0.0
 11
1492.56133
 21
507.555514
 31
0.0
  0
ARC
  5
3CB
100
AcDbEntity
  8
2
  6
Continuous
 62
   174
100
AcDbCircle
 10
1490.25
 20
510.25
 30
0.0
 40
3.55
100
AcDbArc
 50
-49.377015
 51
56.444026
  0
ARC
  5
3CC
100
AcDbEntity
  8
2
  6
Continuous
 62
   174
100
AcDbCircle
 10
1490.25
 20
530.75
 30
0.0
 40
3.55
100
AcDbArc
 50
-56.891645
 51
56.649564
  0
ARC
  5
3CD
100
AcDbEntity
  8
2
  6
Continuous
 62
   174
100
AcDbCircle
 10
1485.75
 20
500.0
 30
0.0
 40
1.3
100
AcDbArc
 50
130.622985
 51
180.0
  0
LINE
  5
3CE
100
AcDbEntity
  8
2
  6
Continuous
 62
   174
100
AcDbLine
 10
1490.25
 20
510.25
 30
0.0
 11
1400.0
 21
510.25
 31
0.0
  0
LINE
  5
3CF
100
AcDbEntity
  8
2
  6
Continuous
 62
   174
100
AcDbLine
 10
1485.25
 20
518.25
 30
0.0
 11
1400.0
 21
518.25
 31
0.0
  0
LINE
  5
3D0
100
AcDbEntity
  8
2
  6
CENTER
 62
   174
100
AcDbLine
 10
1400.0
 20
520.5
 30
0.0
 11
1490.25
 21
520.5
 31
0.0
  0
LINE
  5
3D1
100
AcDbEntity
  8
2
  6
Continuous
 62
   174
100
AcDbLine
 10
1485.25
 20
522.75
 30
0.0
 11
1400.0
 21
522.75
 31
0.0
  0
LINE
  5
3D2
100
AcDbEntity
  8
2
  6
Continuous
 62
   174
100
AcDbLine
 10
1490.25
 20
530.75
 30
0.0
 11
1400.0
 21
530.75
 31
0.0
  0
LINE
  5
3D3
100
AcDbEntity
  8
2
  6
Continuous
 62
   174
100
AcDbLine
 10
1485.25
 20
538.75
 30
0.0
 11
1400.0
 21
538.75
 31
0.0
  0
LINE
  5
3D4
100
AcDbEntity
  8
2
  6
CENTER
 62
   174
100
AcDbLine
 10
1400.0
 20
541.0
 30
0.0
 11
1490.25
 21
541.0
 31
0.0
  0
LINE
  5
3D5
100
AcDbEntity
  8
2
  6
Continuous
 62
   174
100
AcDbLine
 10
1485.25
 20
543.25
 30
0.0
 11
1400.0
 21
543.25
 31
0.0
  0
ARC
  5
3D6
100
AcDbEntity
  8
2
  6
Continuous
 62
   174
100
AcDbCircle
 10
1485.25
 20
520.5
 30
0.0
 40
2.25
100
AcDbArc
 50
-90.0
 51
90.0
  0
LINE
  5
3D7
100
AcDbEntity
  8
2
  6
Continuous
 62
   174
100
AcDbLine
 10
1484.57437
 20
522.75
 30
0.0
 11
1492.205651
 21
527.787243
 31
0.0
  0
LINE
  5
3D8
100
AcDbEntity
  8
2
  6
Continuous
 62
   174
100
AcDbLine
 10
1484.57437
 20
518.25
 30
0.0
 11
1492.205651
 21
513.212757
 31
0.0
  0
LINE
  5
3D9
100
AcDbEntity
  8
2
  6
Continuous
 62
   174
100
AcDbLine
 10
1484.57437
 20
538.75
 30
0.0
 11
1492.205651
 21
533.712757
 31
0.0
  0
ARC
  5
3DA
100
AcDbEntity
  8
2
  6
Continuous
 62
   174
100
AcDbCircle
 10
1485.25
 20
541.0
 30
0.0
 40
2.25
100
AcDbArc
 50
-90.0
 51
90.0
  0
LINE
  5
3DB
100
AcDbEntity
  8
2
  6
Continuous
 62
   174
100
AcDbLine
 10
1484.57437
 20
543.25
 30
0.0
 11
1488.929914
 21
546.125
 31
0.0
  0
LINE
  5
3DC
100
AcDbEntity
  8
2
  6
Continuous
 62
   174
100
AcDbLine
 10
1490.653567
 20
743.270993
 30
0.0
 11
1400.0
 21
743.270993
 31
0.0
  0
LINE
  5
3DD
100
AcDbEntity
  8
2
  6
Continuous
 62
   174
100
AcDbLine
 10
1482.5
 20
735.073295
 30
0.0
 11
1400.0
 21
735.073295
 31
0.0
  0
LINE
  5
3DE
100
AcDbEntity
  8
2
  6
Continuous
 62
   174
100
AcDbLine
 10
1482.5
 20
735.073295
 30
0.0
 11
1490.653567
 21
743.270993
 31
0.0
  0
LINE
  5
3DF
100
AcDbEntity
  8
2
  6
Continuous
 62
   174
100
AcDbLine
 10
1492.250556
 20
887.0
 30
0.0
 11
1490.653567
 21
743.270993
 31
0.0
  0
LINE
  5
3E0
100
AcDbEntity
  8
2
  6
Continuous
 62
   174
100
AcDbLine
 10
1482.5
 20
722.0
 30
0.0
 11
1482.5
 21
735.073295
 31
0.0
  0
LINE
  5
3E1
100
AcDbEntity
  8
2
  6
Continuous
 62
   174
100
AcDbLine
 10
1489.45
 20
672.0
 30
0.0
 11
1489.45
 21
722.0
 31
0.0
  0
LINE
  5
3E2
100
AcDbEntity
  8
2
  6
Continuous
 62
   174
100
AcDbLine
 10
1489.45
 20
722.0
 30
0.0
 11
1400.0
 21
722.0
 31
0.0
  0
LINE
  5
3E3
100
AcDbEntity
  8
2
  6
Continuous
 62
   174
100
AcDbLine
 10
1489.45
 20
672.0
 30
0.0
 11
1400.0
 21
672.0
 31
0.0
  0
LINE
  5
3E4
100
AcDbEntity
  8
2
  6
Continuous
 62
   174
100
AcDbLine
 10
1484.903598
 20
671.013287
 30
0.0
 11
1492.56133
 21
664.444486
 31
0.0
  0
ARC
  5
3E5
100
AcDbEntity
  8
2
  6
Continuous
 62
   174
100
AcDbCircle
 10
1490.25
 20
661.75
 30
0.0
 40
3.55
100
AcDbArc
 50
-56.444026
 51
49.377015
  0
ARC
  5
3E6
100
AcDbEntity
  8
2
  6
Continuous
 62
   174
100
AcDbCircle
 10
1490.25
 20
641.25
 30
0.0
 40
3.55
100
AcDbArc
 50
-56.649564
 51
56.891645
  0
ARC
  5
3E7
100
AcDbEntity
  8
2
  6
Continuous
 62
   174
100
AcDbCircle
 10
1485.75
 20
672.0
 30
0.0
 40
1.3
100
AcDbArc
 50
180.0
 51
-130.622985
  0
LINE
  5
3E8
100
AcDbEntity
  8
2
  6
Continuous
 62
   174
100
AcDbLine
 10
1490.25
 20
661.75
 30
0.0
 11
1400.0
 21
661.75
 31
0.0
  0
LINE
  5
3E9
100
AcDbEntity
  8
2
  6
Continuous
 62
   174
100
AcDbLine
 10
1485.25
 20
653.75
 30
0.0
 11
1400.0
 21
653.75
 31
0.0
  0
LINE
  5
3EA
100
AcDbEntity
  8
2
  6
CENTER
 62
   174
100
AcDbLine
 10
1400.0
 20
651.5
 30
0.0
 11
1490.25
 21
651.5
 31
0.0
  0
LINE
  5
3EB
100
AcDbEntity
  8
2
  6
Continuous
 62
   174
100
AcDbLine
 10
1485.25
 20
649.25
 30
0.0
 11
1400.0
 21
649.25
 31
0.0
  0
LINE
  5
3EC
100
AcDbEntity
  8
2
  6
Continuous
 62
   174
100
AcDbLine
 10
1490.25
 20
641.25
 30
0.0
 11
1400.0
 21
641.25
 31
0.0
  0
LINE
  5
3ED
100
AcDbEntity
  8
2
  6
Continuous
 62
   174
100
AcDbLine
 10
1485.25
 20
633.25
 30
0.0
 11
1400.0
 21
633.25
 31
0.0
  0
LINE
  5
3EE
100
AcDbEntity
  8
2
  6
CENTER
 62
   174
100
AcDbLine
 10
1400.0
 20
631.0
 30
0.0
 11
1490.25
 21
631.0
 31
0.0
  0
LINE
  5
3EF
100
AcDbEntity
  8
2
  6
Continuous
 62
   174
100
AcDbLine
 10
1485.25
 20
628.75
 30
0.0
 11
1400.0
 21
628.75
 31
0.0
  0
ARC
  5
3F0
100
AcDbEntity
  8
2
  6
Continuous
 62
   174
100
AcDbCircle
 10
1485.25
 20
651.5
 30
0.0
 40
2.25
100
AcDbArc
 50
-90.0
 51
90.0
  0
LINE
  5
3F1
100
AcDbEntity
  8
2
  6
Continuous
 62
   174
100
AcDbLine
 10
1484.57437
 20
649.25
 30
0.0
 11
1492.205651
 21
644.212757
 31
0.0
  0
LINE
  5
3F2
100
AcDbEntity
  8
2
  6
Continuous
 62
   174
100
AcDbLine
 10
1484.57437
 20
653.75
 30
0.0
 11
1492.205651
 21
658.787243
 31
0.0
  0
LINE
  5
3F3
100
AcDbEntity
  8
2
  6
Continuous
 62
   174
100
AcDbLine
 10
1484.57437
 20
633.25
 30
0.0
 11
1492.205651
 21
638.287243
 31
0.0
  0
ARC
  5
3F4
100
AcDbEntity
  8
2
  6
Continuous
 62
   174
100
AcDbCircle
 10
1485.25
 20
631.0
 30
0.0
 40
2.25
100
AcDbArc
 50
-90.0
 51
90.0
  0
LINE
  5
3F5
100
AcDbEntity
  8
2
  6
Continuous
 62
   174
100
AcDbLine
 10
1484.57437
 20
628.75
 30
0.0
 11
1488.929914
 21
625.875
 31
0.0
  0
LINE
  5
3F6
100
AcDbEntity
  8
2
  6
CENTER
 62
   174
100
AcDbLine
 10
1493.8
 20
641.25
 30
0.0
 11
1493.8
 21
530.75
 31
0.0
  0
LINE
  5
3F7
100
AcDbEntity
  8
2
  6
Continuous
 62
   174
100
AcDbLine
 10
1492.250556
 20
887.0
 30
0.0
 11
1400.0
 21
887.0
 31
0.0
  0
LINE
  5
3F8
100
AcDbEntity
  8
2
  6
Continuous
 62
   174
100
AcDbLine
 10
1482.5
 20
300.0
 30
0.0
 11
1400.0
 21
300.0
 31
0.0
  0
LINE
  5
3F9
100
AcDbEntity
  8
2
  6
Continuous
 62
   174
100
AcDbLine
 10
1782.5
 20
450.0
 30
0.0
 11
1782.5
 21
300.0
 31
0.0
  0
LINE
  5
3FA
100
AcDbEntity
  8
2
  6
Continuous
 62
   174
100
AcDbLine
 10
1788.8
 20
500.0
 30
0.0
 11
1788.8
 21
450.0
 31
0.0
  0
LINE
  5
3FB
100
AcDbEntity
  8
2
  6
Continuous
 62
   174
100
AcDbLine
 10
1788.8
 20
500.0
 30
0.0
 11
1700.0
 21
500.0
 31
0.0
  0
LINE
  5
3FC
100
AcDbEntity
  8
2
  6
Continuous
 62
   174
100
AcDbLine
 10
1788.8
 20
450.0
 30
0.0
 11
1700.0
 21
450.0
 31
0.0
  0
LINE
  5
3FD
100
AcDbEntity
  8
2
  6
Continuous
 62
   174
100
AcDbLine
 10
1784.903598
 20
500.986713
 30
0.0
 11
1792.56133
 21
507.555514
 31
0.0
  0
ARC
  5
3FE
100
AcDbEntity
  8
2
  6
Continuous
 62
   174
100
AcDbCircle
 10
1790.25
 20
510.25
 30
0.0
 40
3.55
100
AcDbArc
 50
-49.377015
 51
56.444026
  0
ARC
  5
3FF
100
AcDbEntity
  8
2
  6
Continuous
 62
   174
100
AcDbCircle
 10
1790.25
 20
530.75
 30
0.0
 40
3.55
100
AcDbArc
 50
-56.891645
 51
56.649564
  0
ARC
  5
400
100
AcDbEntity
  8
2
  6
Continuous
 62
   174
100
AcDbCircle
 10
1785.75
 20
500.0
 30
0.0
 40
1.3
100
AcDbArc
 50
130.622985
 51
180.0
  0
LINE
  5
401
100
AcDbEntity
  8
2
  6
Continuous
 62
   174
100
AcDbLine
 10
1790.25
 20
510.25
 30
0.0
 11
1700.0
 21
510.25
 31
0.0
  0
LINE
  5
402
100
AcDbEntity
  8
2
  6
Continuous
 62
   174
100
AcDbLine
 10
1785.25
 20
518.25
 30
0.0
 11
1700.0
 21
518.25
 31
0.0
  0
LINE
  5
403
100
AcDbEntity
  8
2
  6
CENTER
 62
   174
100
AcDbLine
 10
1700.0
 20
520.5
 30
0.0
 11
1790.25
 21
520.5
 31
0.0
  0
LINE
  5
404
100
AcDbEntity
  8
2
  6
Continuous
 62
   174
100
AcDbLine
 10
1785.25
 20
522.75
 30
0.0
 11
1700.0
 21
522.75
 31
0.0
  0
LINE
  5
405
100
AcDbEntity
  8
2
  6
Continuous
 62
   174
100
AcDbLine
 10
1790.25
 20
530.75
 30
0.0
 11
1700.0
 21
530.75
 31
0.0
  0
LINE
  5
406
100
AcDbEntity
  8
2
  6
Continuous
 62
   174
100
AcDbLine
 10
1785.25
 20
538.75
 30
0.0
 11
1700.0
 21
538.75
 31
0.0
  0
LINE
  5
407
100
AcDbEntity
  8
2
  6
CENTER
 62
   174
100
AcDbLine
 10
1700.0
 20
541.0
 30
0.0
 11
1790.25
 21
541.0
 31
0.0
  0
LINE
  5
408
100
AcDbEntity
  8
2
  6
Continuous
 62
   174
100
AcDbLine
 10
1785.25
 20
543.25
 30
0.0
 11
1700.0
 21
543.25
 31
0.0
  0
ARC
  5
409
100
AcDbEntity
  8
2
  6
Continuous
 62
   174
100
AcDbCircle
 10
1785.25
 20
520.5
 30
0.0
 40
2.25
100
AcDbArc
 50
-90.0
 51
90.0
  0
LINE
  5
40A
100
AcDbEntity
  8
2
  6
Continuous
 62
   174
100
AcDbLine
 10
1784.57437
 20
522.75
 30
0.0
 11
1792.205651
 21
527.787243
 31
0.0
  0
LINE
  5
40B
100
AcDbEntity
  8
2
  6
Continuous
 62
   174
100
AcDbLine
 10
1784.57437
 20
518.25
 30
0.0
 11
1792.205651
 21
513.212757
 31
0.0
  0
LINE
  5
40C
100
AcDbEntity
  8
2
  6
Continuous
 62
   174
100
AcDbLine
 10
1784.57437
 20
538.75
 30
0.0
 11
1792.205651
 21
533.712757
 31
0.0
  0
ARC
  5
40D
100
AcDbEntity
  8
2
  6
Continuous
 62
   174
100
AcDbCircle
 10
1785.25
 20
541.0
 30
0.0
 40
2.25
100
AcDbArc
 50
-90.0
 51
90.0
  0
LINE
  5
40E
100
AcDbEntity
  8
2
  6
Continuous
 62
   174
100
AcDbLine
 10
1784.57437
 20
543.25
 30
0.0
 11
1788.929914
 21
546.125
 31
0.0
  0
LINE
  5
40F
100
AcDbEntity
  8
2
  6
Continuous
 62
   174
100
AcDbLine
 10
1790.653567
 20
766.270993
 30
0.0
 11
1700.0
 21
766.270993
 31
0.0
  0
LINE
  5
410
100
AcDbEntity
  8
2
  6
Continuous
 62
   174
100
AcDbLine
 10
1782.5
 20
758.073295
 30
0.0
 11
1700.0
 21
758.073295
 31
0.0
  0
LINE
  5
411
100
AcDbEntity
  8
2
  6
Continuous
 62
   174
100
AcDbLine
 10
1782.5
 20
758.073295
 30
0.0
 11
1790.653567
 21
766.270993
 31
0.0
  0
LINE
  5
412
100
AcDbEntity
  8
2
  6
Continuous
 62
   174
100
AcDbLine
 10
1792.250556
 20
910.0
 30
0.0
 11
1790.653567
 21
766.270993
 31
0.0
  0
LINE
  5
413
100
AcDbEntity
  8
2
  6
Continuous
 62
   174
100
AcDbLine
 10
1782.5
 20
745.0
 30
0.0
 11
1782.5
 21
758.073295
 31
0.0
  0
LINE
  5
414
100
AcDbEntity
  8
2
  6
Continuous
 62
   174
100
AcDbLine
 10
1789.45
 20
695.0
 30
0.0
 11
1789.45
 21
745.0
 31
0.0
  0
LINE
  5
415
100
AcDbEntity
  8
2
  6
Continuous
 62
   174
100
AcDbLine
 10
1789.45
 20
745.0
 30
0.0
 11
1700.0
 21
745.0
 31
0.0
  0
LINE
  5
416
100
AcDbEntity
  8
2
  6
Continuous
 62
   174
100
AcDbLine
 10
1789.45
 20
695.0
 30
0.0
 11
1700.0
 21
695.0
 31
0.0
  0
LINE
  5
417
100
AcDbEntity
  8
2
  6
Continuous
 62
   174
100
AcDbLine
 10
1784.903598
 20
694.013287
 30
0.0
 11
1792.56133
 21
687.444486
 31
0.0
  0
ARC
  5
418
100
AcDbEntity
  8
2
  6
Continuous
 62
   174
100
AcDbCircle
 10
1790.25
 20
684.75
 30
0.0
 40
3.55
100
AcDbArc
 50
-56.444026
 51
49.377015
  0
ARC
  5
419
100
AcDbEntity
  8
2
  6
Continuous
 62
   174
100
AcDbCircle
 10
1790.25
 20
664.25
 30
0.0
 40
3.55
100
AcDbArc
 50
-56.649564
 51
56.891645
  0
ARC
  5
41A
100
AcDbEntity
  8
2
  6
Continuous
 62
   174
100
AcDbCircle
 10
1785.75
 20
695.0
 30
0.0
 40
1.3
100
AcDbArc
 50
180.0
 51
-130.622985
  0
LINE
  5
41B
100
AcDbEntity
  8
2
  6
Continuous
 62
   174
100
AcDbLine
 10
1790.25
 20
684.75
 30
0.0
 11
1700.0
 21
684.75
 31
0.0
  0
LINE
  5
41C
100
AcDbEntity
  8
2
  6
Continuous
 62
   174
100
AcDbLine
 10
1785.25
 20
676.75
 30
0.0
 11
1700.0
 21
676.75
 31
0.0
  0
LINE
  5
41D
100
AcDbEntity
  8
2
  6
CENTER
 62
   174
100
AcDbLine
 10
1700.0
 20
674.5
 30
0.0
 11
1790.25
 21
674.5
 31
0.0
  0
LINE
  5
41E
100
AcDbEntity
  8
2
  6
Continuous
 62
   174
100
AcDbLine
 10
1785.25
 20
672.25
 30
0.0
 11
1700.0
 21
672.25
 31
0.0
  0
LINE
  5
41F
100
AcDbEntity
  8
2
  6
Continuous
 62
   174
100
AcDbLine
 10
1790.25
 20
664.25
 30
0.0
 11
1700.0
 21
664.25
 31
0.0
  0
LINE
  5
420
100
AcDbEntity
  8
2
  6
Continuous
 62
   174
100
AcDbLine
 10
1785.25
 20
656.25
 30
0.0
 11
1700.0
 21
656.25
 31
0.0
  0
LINE
  5
421
100
AcDbEntity
  8
2
  6
CENTER
 62
   174
100
AcDbLine
 10
1700.0
 20
654.0
 30
0.0
 11
1790.25
 21
654.0
 31
0.0
  0
LINE
  5
422
100
AcDbEntity
  8
2
  6
Continuous
 62
   174
100
AcDbLine
 10
1785.25
 20
651.75
 30
0.0
 11
1700.0
 21
651.75
 31
0.0
  0
ARC
  5
423
100
AcDbEntity
  8
2
  6
Continuous
 62
   174
100
AcDbCircle
 10
1785.25
 20
674.5
 30
0.0
 40
2.25
100
AcDbArc
 50
-90.0
 51
90.0
  0
LINE
  5
424
100
AcDbEntity
  8
2
  6
Continuous
 62
   174
100
AcDbLine
 10
1784.57437
 20
672.25
 30
0.0
 11
1792.205651
 21
667.212757
 31
0.0
  0
LINE
  5
425
100
AcDbEntity
  8
2
  6
Continuous
 62
   174
100
AcDbLine
 10
1784.57437
 20
676.75
 30
0.0
 11
1792.205651
 21
681.787243
 31
0.0
  0
LINE
  5
426
100
AcDbEntity
  8
2
  6
Continuous
 62
   174
100
AcDbLine
 10
1784.57437
 20
656.25
 30
0.0
 11
1792.205651
 21
661.287243
 31
0.0
  0
ARC
  5
427
100
AcDbEntity
  8
2
  6
Continuous
 62
   174
100
AcDbCircle
 10
1785.25
 20
654.0
 30
0.0
 40
2.25
100
AcDbArc
 50
-90.0
 51
90.0
  0
LINE
  5
428
100
AcDbEntity
  8
2
  6
Continuous
 62
   174
100
AcDbLine
 10
1784.57437
 20
651.75
 30
0.0
 11
1788.929914
 21
648.875
 31
0.0
  0
LINE
  5
429
100
AcDbEntity
  8
2
  6
CENTER
 62
   174
100
AcDbLine
 10
1793.8
 20
664.25
 30
0.0
 11
1793.8
 21
530.75
 31
0.0
  0
LINE
  5
42A
100
AcDbEntity
  8
2
  6
Continuous
 62
   174
100
AcDbLine
 10
1782.5
 20
300.0
 30
0.0
 11
1700.0
 21
300.0
 31
0.0
  0
LINE
  5
42B
100
AcDbEntity
  8
2
  6
Continuous
 62
   174
100
AcDbLine
 10
1792.250556
 20
910.0
 30
0.0
 11
1700.0
 21
910.0
 31
0.0
  0
LINE
  5
42C
100
AcDbEntity
  8
2
  6
Continuous
 62
   174
100
AcDbLine
 10
2082.5
 20
450.0
 30
0.0
 11
2082.5
 21
300.0
 31
0.0
  0
LINE
  5
42D
100
AcDbEntity
  8
2
  6
Continuous
 62
   174
100
AcDbLine
 10
2088.8
 20
500.0
 30
0.0
 11
2088.8
 21
450.0
 31
0.0
  0
LINE
  5
42E
100
AcDbEntity
  8
2
  6
Continuous
 62
   174
100
AcDbLine
 10
2088.8
 20
500.0
 30
0.0
 11
2000.0
 21
500.0
 31
0.0
  0
LINE
  5
42F
100
AcDbEntity
  8
2
  6
Continuous
 62
   174
100
AcDbLine
 10
2088.8
 20
450.0
 30
0.0
 11
2000.0
 21
450.0
 31
0.0
  0
LINE
  5
430
100
AcDbEntity
  8
2
  6
Continuous
 62
   174
100
AcDbLine
 10
2084.903598
 20
500.986713
 30
0.0
 11
2092.56133
 21
507.555514
 31
0.0
  0
ARC
  5
431
100
AcDbEntity
  8
2
  6
Continuous
 62
   174
100
AcDbCircle
 10
2090.25
 20
510.25
 30
0.0
 40
3.55
100
AcDbArc
 50
-49.377015
 51
56.444026
  0
ARC
  5
432
100
AcDbEntity
  8
2
  6
Continuous
 62
   174
100
AcDbCircle
 10
2090.25
 20
530.75
 30
0.0
 40
3.55
100
AcDbArc
 50
-56.891645
 51
56.649564
  0
ARC
  5
433
100
AcDbEntity
  8
2
  6
Continuous
 62
   174
100
AcDbCircle
 10
2085.75
 20
500.0
 30
0.0
 40
1.3
100
AcDbArc
 50
130.622985
 51
180.0
  0
LINE
  5
434
100
AcDbEntity
  8
2
  6
Continuous
 62
   174
100
AcDbLine
 10
2090.25
 20
510.25
 30
0.0
 11
2000.0
 21
510.25
 31
0.0
  0
LINE
  5
435
100
AcDbEntity
  8
2
  6
Continuous
 62
   174
100
AcDbLine
 10
2085.25
 20
518.25
 30
0.0
 11
2000.0
 21
518.25
 31
0.0
  0
LINE
  5
436
100
AcDbEntity
  8
2
  6
CENTER
 62
   174
100
AcDbLine
 10
2000.0
 20
520.5
 30
0.0
 11
2090.25
 21
520.5
 31
0.0
  0
LINE
  5
437
100
AcDbEntity
  8
2
  6
Continuous
 62
   174
100
AcDbLine
 10
2085.25
 20
522.75
 30
0.0
 11
2000.0
 21
522.75
 31
0.0
  0
LINE
  5
438
100
AcDbEntity
  8
2
  6
Continuous
 62
   174
100
AcDbLine
 10
2090.25
 20
530.75
 30
0.0
 11
2000.0
 21
530.75
 31
0.0
  0
LINE
  5
439
100
AcDbEntity
  8
2
  6
Continuous
 62
   174
100
AcDbLine
 10
2085.25
 20
538.75
 30
0.0
 11
2000.0
 21
538.75
 31
0.0
  0
LINE
  5
43A
100
AcDbEntity
  8
2
  6
CENTER
 62
   174
100
AcDbLine
 10
2000.0
 20
541.0
 30
0.0
 11
2090.25
 21
541.0
 31
0.0
  0
LINE
  5
43B
100
AcDbEntity
  8
2
  6
Continuous
 62
   174
100
AcDbLine
 10
2085.25
 20
543.25
 30
0.0
 11
2000.0
 21
543.25
 31
0.0
  0
ARC
  5
43C
100
AcDbEntity
  8
2
  6
Continuous
 62
   174
100
AcDbCircle
 10
2085.25
 20
520.5
 30
0.0
 40
2.25
100
AcDbArc
 50
-90.0
 51
90.0
  0
LINE
  5
43D
100
AcDbEntity
  8
2
  6
Continuous
 62
   174
100
AcDbLine
 10
2084.57437
 20
522.75
 30
0.0
 11
2092.205651
 21
527.787243
 31
0.0
  0
LINE
  5
43E
100
AcDbEntity
  8
2
  6
Continuous
 62
   174
100
AcDbLine
 10
2084.57437
 20
518.25
 30
0.0
 11
2092.205651
 21
513.212757
 31
0.0
  0
LINE
  5
43F
100
AcDbEntity
  8
2
  6
Continuous
 62
   174
100
AcDbLine
 10
2084.57437
 20
538.75
 30
0.0
 11
2092.205651
 21
533.712757
 31
0.0
  0
ARC
  5
440
100
AcDbEntity
  8
2
  6
Continuous
 62
   174
100
AcDbCircle
 10
2085.25
 20
541.0
 30
0.0
 40
2.25
100
AcDbArc
 50
-90.0
 51
90.0
  0
LINE
  5
441
100
AcDbEntity
  8
2
  6
Continuous
 62
   174
100
AcDbLine
 10
2084.57437
 20
543.25
 30
0.0
 11
2088.929914
 21
546.125
 31
0.0
  0
LINE
  5
442
100
AcDbEntity
  8
2
  6
Continuous
 62
   174
100
AcDbLine
 10
2090.653567
 20
771.270993
 30
0.0
 11
2000.0
 21
771.270993
 31
0.0
  0
LINE
  5
443
100
AcDbEntity
  8
2
  6
Continuous
 62
   174
100
AcDbLine
 10
2082.5
 20
763.073295
 30
0.0
 11
2000.0
 21
763.073295
 31
0.0
  0
LINE
  5
444
100
AcDbEntity
  8
2
  6
Continuous
 62
   174
100
AcDbLine
 10
2082.5
 20
763.073295
 30
0.0
 11
2090.653567
 21
771.270993
 31
0.0
  0
LINE
  5
445
100
AcDbEntity
  8
2
  6
Continuous
 62
   174
100
AcDbLine
 10
2092.250556
 20
915.0
 30
0.0
 11
2090.653567
 21
771.270993
 31
0.0
  0
LINE
  5
446
100
AcDbEntity
  8
2
  6
Continuous
 62
   174
100
AcDbLine
 10
2082.5
 20
750.0
 30
0.0
 11
2082.5
 21
763.073295
 31
0.0
  0
LINE
  5
447
100
AcDbEntity
  8
2
  6
Continuous
 62
   174
100
AcDbLine
 10
2089.45
 20
700.0
 30
0.0
 11
2089.45
 21
750.0
 31
0.0
  0
LINE
  5
448
100
AcDbEntity
  8
2
  6
Continuous
 62
   174
100
AcDbLine
 10
2089.45
 20
750.0
 30
0.0
 11
2000.0
 21
750.0
 31
0.0
  0
LINE
  5
449
100
AcDbEntity
  8
2
  6
Continuous
 62
   174
100
AcDbLine
 10
2089.45
 20
700.0
 30
0.0
 11
2000.0
 21
700.0
 31
0.0
  0
LINE
  5
44A
100
AcDbEntity
  8
2
  6
Continuous
 62
   174
100
AcDbLine
 10
2084.903598
 20
699.013287
 30
0.0
 11
2092.56133
 21
692.444486
 31
0.0
  0
ARC
  5
44B
100
AcDbEntity
  8
2
  6
Continuous
 62
   174
100
AcDbCircle
 10
2090.25
 20
689.75
 30
0.0
 40
3.55
100
AcDbArc
 50
-56.444026
 51
49.377015
  0
ARC
  5
44C
100
AcDbEntity
  8
2
  6
Continuous
 62
   174
100
AcDbCircle
 10
2090.25
 20
669.25
 30
0.0
 40
3.55
100
AcDbArc
 50
-56.649564
 51
56.891645
  0
ARC
  5
44D
100
AcDbEntity
  8
2
  6
Continuous
 62
   174
100
AcDbCircle
 10
2085.75
 20
700.0
 30
0.0
 40
1.3
100
AcDbArc
 50
180.0
 51
-130.622985
  0
LINE
  5
44E
100
AcDbEntity
  8
2
  6
Continuous
 62
   174
100
AcDbLine
 10
2090.25
 20
689.75
 30
0.0
 11
2000.0
 21
689.75
 31
0.0
  0
LINE
  5
44F
100
AcDbEntity
  8
2
  6
Continuous
 62
   174
100
AcDbLine
 10
2085.25
 20
681.75
 30
0.0
 11
2000.0
 21
681.75
 31
0.0
  0
LINE
  5
450
100
AcDbEntity
  8
2
  6
CENTER
 62
   174
100
AcDbLine
 10
2000.0
 20
679.5
 30
0.0
 11
2090.25
 21
679.5
 31
0.0
  0
LINE
  5
451
100
AcDbEntity
  8
2
  6
Continuous
 62
   174
100
AcDbLine
 10
2085.25
 20
677.25
 30
0.0
 11
2000.0
 21
677.25
 31
0.0
  0
LINE
  5
452
100
AcDbEntity
  8
2
  6
Continuous
 62
   174
100
AcDbLine
 10
2090.25
 20
669.25
 30
0.0
 11
2000.0
 21
669.25
 31
0.0
  0
LINE
  5
453
100
AcDbEntity
  8
2
  6
Continuous
 62
   174
100
AcDbLine
 10
2085.25
 20
661.25
 30
0.0
 11
2000.0
 21
661.25
 31
0.0
  0
LINE
  5
454
100
AcDbEntity
  8
2
  6
CENTER
 62
   174
100
AcDbLine
 10
2000.0
 20
659.0
 30
0.0
 11
2090.25
 21
659.0
 31
0.0
  0
LINE
  5
455
100
AcDbEntity
  8
2
  6
Continuous
 62
   174
100
AcDbLine
 10
2085.25
 20
656.75
 30
0.0
 11
2000.0
 21
656.75
 31
0.0
  0
ARC
  5
456
100
AcDbEntity
  8
2
  6
Continuous
 62
   174
100
AcDbCircle
 10
2085.25
 20
679.5
 30
0.0
 40
2.25
100
AcDbArc
 50
-90.0
 51
90.0
  0
LINE
  5
457
100
AcDbEntity
  8
2
  6
Continuous
 62
   174
100
AcDbLine
 10
2084.57437
 20
677.25
 30
0.0
 11
2092.205651
 21
672.212757
 31
0.0
  0
LINE
  5
458
100
AcDbEntity
  8
2
  6
Continuous
 62
   174
100
AcDbLine
 10
2084.57437
 20
681.75
 30
0.0
 11
2092.205651
 21
686.787243
 31
0.0
  0
LINE
  5
459
100
AcDbEntity
  8
2
  6
Continuous
 62
   174
100
AcDbLine
 10
2084.57437
 20
661.25
 30
0.0
 11
2092.205651
 21
666.287243
 31
0.0
  0
ARC
  5
45A
100
AcDbEntity
  8
2
  6
Continuous
 62
   174
100
AcDbCircle
 10
2085.25
 20
659.0
 30
0.0
 40
2.25
100
AcDbArc
 50
-90.0
 51
90.0
  0
LINE
  5
45B
100
AcDbEntity
  8
2
  6
Continuous
 62
   174
100
AcDbLine
 10
2084.57437
 20
656.75
 30
0.0
 11
2088.929914
 21
653.875
 31
0.0
  0
LINE
  5
45C
100
AcDbEntity
  8
2
  6
CENTER
 62
   174
100
AcDbLine
 10
2093.8
 20
669.25
 30
0.0
 11
2093.8
 21
530.75
 31
0.0
  0
LINE
  5
45D
100
AcDbEntity
  8
2
  6
Continuous
 62
   174
100
AcDbLine
 10
2092.250556
 20
915.0
 30
0.0
 11
2000.0
 21
915.0
 31
0.0
  0
LINE
  5
45E
100
AcDbEntity
  8
2
  6
Continuous
 62
   174
100
AcDbLine
 10
2082.5
 20
300.0
 30
0.0
 11
2000.0
 21
300.0
 31
0.0
  0
LINE
  5
45F
100
AcDbEntity
  8
2
  6
Continuous
 62
   174
100
AcDbLine
 10
2382.5
 20
450.0
 30
0.0
 11
2382.5
 21
300.0
 31
0.0
  0
LINE
  5
460
100
AcDbEntity
  8
2
  6
Continuous
 62
   174
100
AcDbLine
 10
2388.8
 20
500.0
 30
0.0
 11
2388.8
 21
450.0
 31
0.0
  0
LINE
  5
461
100
AcDbEntity
  8
2
  6
Continuous
 62
   174
100
AcDbLine
 10
2388.8
 20
500.0
 30
0.0
 11
2300.0
 21
500.0
 31
0.0
  0
LINE
  5
462
100
AcDbEntity
  8
2
  6
Continuous
 62
   174
100
AcDbLine
 10
2388.8
 20
450.0
 30
0.0
 11
2300.0
 21
450.0
 31
0.0
  0
LINE
  5
463
100
AcDbEntity
  8
2
  6
Continuous
 62
   174
100
AcDbLine
 10
2384.903598
 20
500.986713
 30
0.0
 11
2392.56133
 21
507.555514
 31
0.0
  0
ARC
  5
464
100
AcDbEntity
  8
2
  6
Continuous
 62
   174
100
AcDbCircle
 10
2390.25
 20
510.25
 30
0.0
 40
3.55
100
AcDbArc
 50
-49.377015
 51
56.444026
  0
ARC
  5
465
100
AcDbEntity
  8
2
  6
Continuous
 62
   174
100
AcDbCircle
 10
2390.25
 20
530.75
 30
0.0
 40
3.55
100
AcDbArc
 50
-56.891645
 51
56.649564
  0
ARC
  5
466
100
AcDbEntity
  8
2
  6
Continuous
 62
   174
100
AcDbCircle
 10
2385.75
 20
500.0
 30
0.0
 40
1.3
100
AcDbArc
 50
130.622985
 51
180.0
  0
LINE
  5
467
100
AcDbEntity
  8
2
  6
Continuous
 62
   174
100
AcDbLine
 10
2390.25
 20
510.25
 30
0.0
 11
2300.0
 21
510.25
 31
0.0
  0
LINE
  5
468
100
AcDbEntity
  8
2
  6
Continuous
 62
   174
100
AcDbLine
 10
2385.25
 20
518.25
 30
0.0
 11
2300.0
 21
518.25
 31
0.0
  0
LINE
  5
469
100
AcDbEntity
  8
2
  6
CENTER
 62
   174
100
AcDbLine
 10
2300.0
 20
520.5
 30
0.0
 11
2390.25
 21
520.5
 31
0.0
  0
LINE
  5
46A
100
AcDbEntity
  8
2
  6
Continuous
 62
   174
100
AcDbLine
 10
2385.25
 20
522.75
 30
0.0
 11
2300.0
 21
522.75
 31
0.0
  0
LINE
  5
46B
100
AcDbEntity
  8
2
  6
Continuous
 62
   174
100
AcDbLine
 10
2390.25
 20
530.75
 30
0.0
 11
2300.0
 21
530.75
 31
0.0
  0
LINE
  5
46C
100
AcDbEntity
  8
2
  6
Continuous
 62
   174
100
AcDbLine
 10
2385.25
 20
538.75
 30
0.0
 11
2300.0
 21
538.75
 31
0.0
  0
LINE
  5
46D
100
AcDbEntity
  8
2
  6
CENTER
 62
   174
100
AcDbLine
 10
2300.0
 20
541.0
 30
0.0
 11
2390.25
 21
541.0
 31
0.0
  0
LINE
  5
46E
100
AcDbEntity
  8
2
  6
Continuous
 62
   174
100
AcDbLine
 10
2385.25
 20
543.25
 30
0.0
 11
2300.0
 21
543.25
 31
0.0
  0
ARC
  5
46F
100
AcDbEntity
  8
2
  6
Continuous
 62
   174
100
AcDbCircle
 10
2385.25
 20
520.5
 30
0.0
 40
2.25
100
AcDbArc
 50
-90.0
 51
90.0
  0
LINE
  5
470
100
AcDbEntity
  8
2
  6
Continuous
 62
   174
100
AcDbLine
 10
2384.57437
 20
522.75
 30
0.0
 11
2392.205651
 21
527.787243
 31
0.0
  0
LINE
  5
471
100
AcDbEntity
  8
2
  6
Continuous
 62
   174
100
AcDbLine
 10
2384.57437
 20
518.25
 30
0.0
 11
2392.205651
 21
513.212757
 31
0.0
  0
LINE
  5
472
100
AcDbEntity
  8
2
  6
Continuous
 62
   174
100
AcDbLine
 10
2384.57437
 20
538.75
 30
0.0
 11
2392.205651
 21
533.712757
 31
0.0
  0
ARC
  5
473
100
AcDbEntity
  8
2
  6
Continuous
 62
   174
100
AcDbCircle
 10
2385.25
 20
541.0
 30
0.0
 40
2.25
100
AcDbArc
 50
-90.0
 51
90.0
  0
LINE
  5
474
100
AcDbEntity
  8
2
  6
Continuous
 62
   174
100
AcDbLine
 10
2384.57437
 20
543.25
 30
0.0
 11
2388.929914
 21
546.125
 31
0.0
  0
LINE
  5
475
100
AcDbEntity
  8
2
  6
Continuous
 62
   174
100
AcDbLine
 10
2390.653567
 20
786.270993
 30
0.0
 11
2300.0
 21
786.270993
 31
0.0
  0
LINE
  5
476
100
AcDbEntity
  8
2
  6
Continuous
 62
   174
100
AcDbLine
 10
2382.5
 20
778.073295
 30
0.0
 11
2300.0
 21
778.073295
 31
0.0
  0
LINE
  5
477
100
AcDbEntity
  8
2
  6
Continuous
 62
   174
100
AcDbLine
 10
2382.5
 20
778.073295
 30
0.0
 11
2390.653567
 21
786.270993
 31
0.0
  0
LINE
  5
478
100
AcDbEntity
  8
2
  6
Continuous
 62
   174
100
AcDbLine
 10
2392.250556
 20
930.0
 30
0.0
 11
2390.653567
 21
786.270993
 31
0.0
  0
LINE
  5
479
100
AcDbEntity
  8
2
  6
Continuous
 62
   174
100
AcDbLine
 10
2382.5
 20
765.0
 30
0.0
 11
2382.5
 21
778.073295
 31
0.0
  0
LINE
  5
47A
100
AcDbEntity
  8
2
  6
Continuous
 62
   174
100
AcDbLine
 10
2389.45
 20
715.0
 30
0.0
 11
2389.45
 21
765.0
 31
0.0
  0
LINE
  5
47B
100
AcDbEntity
  8
2
  6
Continuous
 62
   174
100
AcDbLine
 10
2389.45
 20
765.0
 30
0.0
 11
2300.0
 21
765.0
 31
0.0
  0
LINE
  5
47C
100
AcDbEntity
  8
2
  6
Continuous
 62
   174
100
AcDbLine
 10
2389.45
 20
715.0
 30
0.0
 11
2300.0
 21
715.0
 31
0.0
  0
LINE
  5
47D
100
AcDbEntity
  8
2
  6
Continuous
 62
   174
100
AcDbLine
 10
2384.903598
 20
714.013287
 30
0.0
 11
2392.56133
 21
707.444486
 31
0.0
  0
ARC
  5
47E
100
AcDbEntity
  8
2
  6
Continuous
 62
   174
100
AcDbCircle
 10
2390.25
 20
704.75
 30
0.0
 40
3.55
100
AcDbArc
 50
-56.444026
 51
49.377015
  0
ARC
  5
47F
100
AcDbEntity
  8
2
  6
Continuous
 62
   174
100
AcDbCircle
 10
2390.25
 20
684.25
 30
0.0
 40
3.55
100
AcDbArc
 50
-56.649564
 51
56.891645
  0
ARC
  5
480
100
AcDbEntity
  8
2
  6
Continuous
 62
   174
100
AcDbCircle
 10
2385.75
 20
715.0
 30
0.0
 40
1.3
100
AcDbArc
 50
180.0
 51
-130.622985
  0
LINE
  5
481
100
AcDbEntity
  8
2
  6
Continuous
 62
   174
100
AcDbLine
 10
2390.25
 20
704.75
 30
0.0
 11
2300.0
 21
704.75
 31
0.0
  0
LINE
  5
482
100
AcDbEntity
  8
2
  6
Continuous
 62
   174
100
AcDbLine
 10
2385.25
 20
696.75
 30
0.0
 11
2300.0
 21
696.75
 31
0.0
  0
LINE
  5
483
100
AcDbEntity
  8
2
  6
CENTER
 62
   174
100
AcDbLine
 10
2300.0
 20
694.5
 30
0.0
 11
2390.25
 21
694.5
 31
0.0
  0
LINE
  5
484
100
AcDbEntity
  8
2
  6
Continuous
 62
   174
100
AcDbLine
 10
2385.25
 20
692.25
 30
0.0
 11
2300.0
 21
692.25
 31
0.0
  0
LINE
  5
485
100
AcDbEntity
  8
2
  6
Continuous
 62
   174
100
AcDbLine
 10
2390.25
 20
684.25
 30
0.0
 11
2300.0
 21
684.25
 31
0.0
  0
LINE
  5
486
100
AcDbEntity
  8
2
  6
Continuous
 62
   174
100
AcDbLine
 10
2385.25
 20
676.25
 30
0.0
 11
2300.0
 21
676.25
 31
0.0
  0
LINE
  5
487
100
AcDbEntity
  8
2
  6
CENTER
 62
   174
100
AcDbLine
 10
2300.0
 20
674.0
 30
0.0
 11
2390.25
 21
674.0
 31
0.0
  0
LINE
  5
488
100
AcDbEntity
  8
2
  6
Continuous
 62
   174
100
AcDbLine
 10
2385.25
 20
671.75
 30
0.0
 11
2300.0
 21
671.75
 31
0.0
  0
ARC
  5
489
100
AcDbEntity
  8
2
  6
Continuous
 62
   174
100
AcDbCircle
 10
2385.25
 20
694.5
 30
0.0
 40
2.25
100
AcDbArc
 50
-90.0
 51
90.0
  0
LINE
  5
48A
100
AcDbEntity
  8
2
  6
Continuous
 62
   174
100
AcDbLine
 10
2384.57437
 20
692.25
 30
0.0
 11
2392.205651
 21
687.212757
 31
0.0
  0
LINE
  5
48B
100
AcDbEntity
  8
2
  6
Continuous
 62
   174
100
AcDbLine
 10
2384.57437
 20
696.75
 30
0.0
 11
2392.205651
 21
701.787243
 31
0.0
  0
LINE
  5
48C
100
AcDbEntity
  8
2
  6
Continuous
 62
   174
100
AcDbLine
 10
2384.57437
 20
676.25
 30
0.0
 11
2392.205651
 21
681.287243
 31
0.0
  0
ARC
  5
48D
100
AcDbEntity
  8
2
  6
Continuous
 62
   174
100
AcDbCircle
 10
2385.25
 20
674.0
 30
0.0
 40
2.25
100
AcDbArc
 50
-90.0
 51
90.0
  0
LINE
  5
48E
100
AcDbEntity
  8
2
  6
Continuous
 62
   174
100
AcDbLine
 10
2384.57437
 20
671.75
 30
0.0
 11
2388.929914
 21
668.875
 31
0.0
  0
LINE
  5
48F
100
AcDbEntity
  8
2
  6
CENTER
 62
   174
100
AcDbLine
 10
2393.8
 20
684.25
 30
0.0
 11
2393.8
 21
530.75
 31
0.0
  0
LINE
  5
490
100
AcDbEntity
  8
2
  6
Continuous
 62
   174
100
AcDbLine
 10
2382.5
 20
300.0
 30
0.0
 11
2300.0
 21
300.0
 31
0.0
  0
LINE
  5
491
100
AcDbEntity
  8
2
  6
Continuous
 62
   174
100
AcDbLine
 10
2392.250556
 20
930.0
 30
0.0
 11
2300.0
 21
930.0
 31
0.0
  0
LINE
  5
492
100
AcDbEntity
  8
2
  6
Continuous
 62
   174
100
AcDbLine
 10
2682.5
 20
450.0
 30
0.0
 11
2682.5
 21
300.0
 31
0.0
  0
LINE
  5
493
100
AcDbEntity
  8
2
  6
Continuous
 62
   174
100
AcDbLine
 10
2688.8
 20
500.0
 30
0.0
 11
2688.8
 21
450.0
 31
0.0
  0
LINE
  5
494
100
AcDbEntity
  8
2
  6
Continuous
 62
   174
100
AcDbLine
 10
2688.8
 20
500.0
 30
0.0
 11
2600.0
 21
500.0
 31
0.0
  0
LINE
  5
495
100
AcDbEntity
  8
2
  6
Continuous
 62
   174
100
AcDbLine
 10
2688.8
 20
450.0
 30
0.0
 11
2600.0
 21
450.0
 31
0.0
  0
LINE
  5
496
100
AcDbEntity
  8
2
  6
Continuous
 62
   174
100
AcDbLine
 10
2684.903598
 20
500.986713
 30
0.0
 11
2692.56133
 21
507.555514
 31
0.0
  0
ARC
  5
497
100
AcDbEntity
  8
2
  6
Continuous
 62
   174
100
AcDbCircle
 10
2690.25
 20
510.25
 30
0.0
 40
3.55
100
AcDbArc
 50
-49.377015
 51
56.444026
  0
ARC
  5
498
100
AcDbEntity
  8
2
  6
Continuous
 62
   174
100
AcDbCircle
 10
2690.25
 20
530.75
 30
0.0
 40
3.55
100
AcDbArc
 50
-56.891645
 51
56.649564
  0
ARC
  5
499
100
AcDbEntity
  8
2
  6
Continuous
 62
   174
100
AcDbCircle
 10
2685.75
 20
500.0
 30
0.0
 40
1.3
100
AcDbArc
 50
130.622985
 51
180.0
  0
LINE
  5
49A
100
AcDbEntity
  8
2
  6
Continuous
 62
   174
100
AcDbLine
 10
2690.25
 20
510.25
 30
0.0
 11
2600.0
 21
510.25
 31
0.0
  0
LINE
  5
49B
100
AcDbEntity
  8
2
  6
Continuous
 62
   174
100
AcDbLine
 10
2685.25
 20
518.25
 30
0.0
 11
2600.0
 21
518.25
 31
0.0
  0
LINE
  5
49C
100
AcDbEntity
  8
2
  6
CENTER
 62
   174
100
AcDbLine
 10
2600.0
 20
520.5
 30
0.0
 11
2690.25
 21
520.5
 31
0.0
  0
LINE
  5
49D
100
AcDbEntity
  8
2
  6
Continuous
 62
   174
100
AcDbLine
 10
2685.25
 20
522.75
 30
0.0
 11
2600.0
 21
522.75
 31
0.0
  0
LINE
  5
49E
100
AcDbEntity
  8
2
  6
Continuous
 62
   174
100
AcDbLine
 10
2690.25
 20
530.75
 30
0.0
 11
2600.0
 21
530.75
 31
0.0
  0
LINE
  5
49F
100
AcDbEntity
  8
2
  6
Continuous
 62
   174
100
AcDbLine
 10
2685.25
 20
538.75
 30
0.0
 11
2600.0
 21
538.75
 31
0.0
  0
LINE
  5
4A0
100
AcDbEntity
  8
2
  6
CENTER
 62
   174
100
AcDbLine
 10
2600.0
 20
541.0
 30
0.0
 11
2690.25
 21
541.0
 31
0.0
  0
LINE
  5
4A1
100
AcDbEntity
  8
2
  6
Continuous
 62
   174
100
AcDbLine
 10
2685.25
 20
543.25
 30
0.0
 11
2600.0
 21
543.25
 31
0.0
  0
ARC
  5
4A2
100
AcDbEntity
  8
2
  6
Continuous
 62
   174
100
AcDbCircle
 10
2685.25
 20
520.5
 30
0.0
 40
2.25
100
AcDbArc
 50
-90.0
 51
90.0
  0
LINE
  5
4A3
100
AcDbEntity
  8
2
  6
Continuous
 62
   174
100
AcDbLine
 10
2684.57437
 20
522.75
 30
0.0
 11
2692.205651
 21
527.787243
 31
0.0
  0
LINE
  5
4A4
100
AcDbEntity
  8
2
  6
Continuous
 62
   174
100
AcDbLine
 10
2684.57437
 20
518.25
 30
0.0
 11
2692.205651
 21
513.212757
 31
0.0
  0
LINE
  5
4A5
100
AcDbEntity
  8
2
  6
Continuous
 62
   174
100
AcDbLine
 10
2684.57437
 20
538.75
 30
0.0
 11
2692.205651
 21
533.712757
 31
0.0
  0
ARC
  5
4A6
100
AcDbEntity
  8
2
  6
Continuous
 62
   174
100
AcDbCircle
 10
2685.25
 20
541.0
 30
0.0
 40
2.25
100
AcDbArc
 50
-90.0
 51
90.0
  0
LINE
  5
4A7
100
AcDbEntity
  8
2
  6
Continuous
 62
   174
100
AcDbLine
 10
2684.57437
 20
543.25
 30
0.0
 11
2688.929914
 21
546.125
 31
0.0
  0
LINE
  5
4A8
100
AcDbEntity
  8
2
  6
Continuous
 62
   174
100
AcDbLine
 10
2690.653567
 20
801.270993
 30
0.0
 11
2600.0
 21
801.270993
 31
0.0
  0
LINE
  5
4A9
100
AcDbEntity
  8
2
  6
Continuous
 62
   174
100
AcDbLine
 10
2682.5
 20
793.073295
 30
0.0
 11
2600.0
 21
793.073295
 31
0.0
  0
LINE
  5
4AA
100
AcDbEntity
  8
2
  6
Continuous
 62
   174
100
AcDbLine
 10
2682.5
 20
793.073295
 30
0.0
 11
2690.653567
 21
801.270993
 31
0.0
  0
LINE
  5
4AB
100
AcDbEntity
  8
2
  6
Continuous
 62
   174
100
AcDbLine
 10
2692.250556
 20
945.0
 30
0.0
 11
2690.653567
 21
801.270993
 31
0.0
  0
LINE
  5
4AC
100
AcDbEntity
  8
2
  6
Continuous
 62
   174
100
AcDbLine
 10
2682.5
 20
780.0
 30
0.0
 11
2682.5
 21
793.073295
 31
0.0
  0
LINE
  5
4AD
100
AcDbEntity
  8
2
  6
Continuous
 62
   174
100
AcDbLine
 10
2689.45
 20
730.0
 30
0.0
 11
2689.45
 21
780.0
 31
0.0
  0
LINE
  5
4AE
100
AcDbEntity
  8
2
  6
Continuous
 62
   174
100
AcDbLine
 10
2689.45
 20
780.0
 30
0.0
 11
2600.0
 21
780.0
 31
0.0
  0
LINE
  5
4AF
100
AcDbEntity
  8
2
  6
Continuous
 62
   174
100
AcDbLine
 10
2689.45
 20
730.0
 30
0.0
 11
2600.0
 21
730.0
 31
0.0
  0
LINE
  5
4B0
100
AcDbEntity
  8
2
  6
Continuous
 62
   174
100
AcDbLine
 10
2684.903598
 20
729.013287
 30
0.0
 11
2692.56133
 21
722.444486
 31
0.0
  0
ARC
  5
4B1
100
AcDbEntity
  8
2
  6
Continuous
 62
   174
100
AcDbCircle
 10
2690.25
 20
719.75
 30
0.0
 40
3.55
100
AcDbArc
 50
-56.444026
 51
49.377015
  0
ARC
  5
4B2
100
AcDbEntity
  8
2
  6
Continuous
 62
   174
100
AcDbCircle
 10
2690.25
 20
699.25
 30
0.0
 40
3.55
100
AcDbArc
 50
-56.649564
 51
56.891645
  0
ARC
  5
4B3
100
AcDbEntity
  8
2
  6
Continuous
 62
   174
100
AcDbCircle
 10
2685.75
 20
730.0
 30
0.0
 40
1.3
100
AcDbArc
 50
180.0
 51
-130.622985
  0
LINE
  5
4B4
100
AcDbEntity
  8
2
  6
Continuous
 62
   174
100
AcDbLine
 10
2690.25
 20
719.75
 30
0.0
 11
2600.0
 21
719.75
 31
0.0
  0
LINE
  5
4B5
100
AcDbEntity
  8
2
  6
Continuous
 62
   174
100
AcDbLine
 10
2685.25
 20
711.75
 30
0.0
 11
2600.0
 21
711.75
 31
0.0
  0
LINE
  5
4B6
100
AcDbEntity
  8
2
  6
CENTER
 62
   174
100
AcDbLine
 10
2600.0
 20
709.5
 30
0.0
 11
2690.25
 21
709.5
 31
0.0
  0
LINE
  5
4B7
100
AcDbEntity
  8
2
  6
Continuous
 62
   174
100
AcDbLine
 10
2685.25
 20
707.25
 30
0.0
 11
2600.0
 21
707.25
 31
0.0
  0
LINE
  5
4B8
100
AcDbEntity
  8
2
  6
Continuous
 62
   174
100
AcDbLine
 10
2690.25
 20
699.25
 30
0.0
 11
2600.0
 21
699.25
 31
0.0
  0
LINE
  5
4B9
100
AcDbEntity
  8
2
  6
Continuous
 62
   174
100
AcDbLine
 10
2685.25
 20
691.25
 30
0.0
 11
2600.0
 21
691.25
 31
0.0
  0
LINE
  5
4BA
100
AcDbEntity
  8
2
  6
CENTER
 62
   174
100
AcDbLine
 10
2600.0
 20
689.0
 30
0.0
 11
2690.25
 21
689.0
 31
0.0
  0
LINE
  5
4BB
100
AcDbEntity
  8
2
  6
Continuous
 62
   174
100
AcDbLine
 10
2685.25
 20
686.75
 30
0.0
 11
2600.0
 21
686.75
 31
0.0
  0
ARC
  5
4BC
100
AcDbEntity
  8
2
  6
Continuous
 62
   174
100
AcDbCircle
 10
2685.25
 20
709.5
 30
0.0
 40
2.25
100
AcDbArc
 50
-90.0
 51
90.0
  0
LINE
  5
4BD
100
AcDbEntity
  8
2
  6
Continuous
 62
   174
100
AcDbLine
 10
2684.57437
 20
707.25
 30
0.0
 11
2692.205651
 21
702.212757
 31
0.0
  0
LINE
  5
4BE
100
AcDbEntity
  8
2
  6
Continuous
 62
   174
100
AcDbLine
 10
2684.57437
 20
711.75
 30
0.0
 11
2692.205651
 21
716.787243
 31
0.0
  0
LINE
  5
4BF
100
AcDbEntity
  8
2
  6
Continuous
 62
   174
100
AcDbLine
 10
2684.57437
 20
691.25
 30
0.0
 11
2692.205651
 21
696.287243
 31
0.0
  0
ARC
  5
4C0
100
AcDbEntity
  8
2
  6
Continuous
 62
   174
100
AcDbCircle
 10
2685.25
 20
689.0
 30
0.0
 40
2.25
100
AcDbArc
 50
-90.0
 51
90.0
  0
LINE
  5
4C1
100
AcDbEntity
  8
2
  6
Continuous
 62
   174
100
AcDbLine
 10
2684.57437
 20
686.75
 30
0.0
 11
2688.929914
 21
683.875
 31
0.0
  0
LINE
  5
4C2
100
AcDbEntity
  8
2
  6
CENTER
 62
   174
100
AcDbLine
 10
2693.8
 20
699.25
 30
0.0
 11
2693.8
 21
530.75
 31
0.0
  0
LINE
  5
4C3
100
AcDbEntity
  8
2
  6
Continuous
 62
   174
100
AcDbLine
 10
2692.250556
 20
945.0
 30
0.0
 11
2600.0
 21
945.0
 31
0.0
  0
LINE
  5
4C4
100
AcDbEntity
  8
2
  6
Continuous
 62
   174
100
AcDbLine
 10
2682.5
 20
300.0
 30
0.0
 11
2600.0
 21
300.0
 31
0.0
  0
LINE
  5
4C5
100
AcDbEntity
  8
2
  6
Continuous
 62
   174
100
AcDbLine
 10
2982.5
 20
450.0
 30
0.0
 11
2982.5
 21
300.0
 31
0.0
  0
LINE
  5
4C6
100
AcDbEntity
  8
2
  6
Continuous
 62
   174
100
AcDbLine
 10
2988.8
 20
500.0
 30
0.0
 11
2988.8
 21
450.0
 31
0.0
  0
LINE
  5
4C7
100
AcDbEntity
  8
2
  6
Continuous
 62
   174
100
AcDbLine
 10
2988.8
 20
500.0
 30
0.0
 11
2900.0
 21
500.0
 31
0.0
  0
LINE
  5
4C8
100
AcDbEntity
  8
2
  6
Continuous
 62
   174
100
AcDbLine
 10
2988.8
 20
450.0
 30
0.0
 11
2900.0
 21
450.0
 31
0.0
  0
LINE
  5
4C9
100
AcDbEntity
  8
2
  6
Continuous
 62
   174
100
AcDbLine
 10
2984.903598
 20
500.986713
 30
0.0
 11
2992.56133
 21
507.555514
 31
0.0
  0
ARC
  5
4CA
100
AcDbEntity
  8
2
  6
Continuous
 62
   174
100
AcDbCircle
 10
2990.25
 20
510.25
 30
0.0
 40
3.55
100
AcDbArc
 50
-49.377015
 51
56.444026
  0
ARC
  5
4CB
100
AcDbEntity
  8
2
  6
Continuous
 62
   174
100
AcDbCircle
 10
2990.25
 20
530.75
 30
0.0
 40
3.55
100
AcDbArc
 50
-56.891645
 51
56.649564
  0
ARC
  5
4CC
100
AcDbEntity
  8
2
  6
Continuous
 62
   174
100
AcDbCircle
 10
2985.75
 20
500.0
 30
0.0
 40
1.3
100
AcDbArc
 50
130.622985
 51
180.0
  0
LINE
  5
4CD
100
AcDbEntity
  8
2
  6
Continuous
 62
   174
100
AcDbLine
 10
2990.25
 20
510.25
 30
0.0
 11
2900.0
 21
510.25
 31
0.0
  0
LINE
  5
4CE
100
AcDbEntity
  8
2
  6
Continuous
 62
   174
100
AcDbLine
 10
2985.25
 20
518.25
 30
0.0
 11
2900.0
 21
518.25
 31
0.0
  0
LINE
  5
4CF
100
AcDbEntity
  8
2
  6
CENTER
 62
   174
100
AcDbLine
 10
2900.0
 20
520.5
 30
0.0
 11
2990.25
 21
520.5
 31
0.0
  0
LINE
  5
4D0
100
AcDbEntity
  8
2
  6
Continuous
 62
   174
100
AcDbLine
 10
2985.25
 20
522.75
 30
0.0
 11
2900.0
 21
522.75
 31
0.0
  0
LINE
  5
4D1
100
AcDbEntity
  8
2
  6
Continuous
 62
   174
100
AcDbLine
 10
2990.25
 20
530.75
 30
0.0
 11
2900.0
 21
530.75
 31
0.0
  0
LINE
  5
4D2
100
AcDbEntity
  8
2
  6
Continuous
 62
   174
100
AcDbLine
 10
2985.25
 20
538.75
 30
0.0
 11
2900.0
 21
538.75
 31
0.0
  0
LINE
  5
4D3
100
AcDbEntity
  8
2
  6
CENTER
 62
   174
100
AcDbLine
 10
2900.0
 20
541.0
 30
0.0
 11
2990.25
 21
541.0
 31
0.0
  0
LINE
  5
4D4
100
AcDbEntity
  8
2
  6
Continuous
 62
   174
100
AcDbLine
 10
2985.25
 20
543.25
 30
0.0
 11
2900.0
 21
543.25
 31
0.0
  0
ARC
  5
4D5
100
AcDbEntity
  8
2
  6
Continuous
 62
   174
100
AcDbCircle
 10
2985.25
 20
520.5
 30
0.0
 40
2.25
100
AcDbArc
 50
-90.0
 51
90.0
  0
LINE
  5
4D6
100
AcDbEntity
  8
2
  6
Continuous
 62
   174
100
AcDbLine
 10
2984.57437
 20
522.75
 30
0.0
 11
2992.205651
 21
527.787243
 31
0.0
  0
LINE
  5
4D7
100
AcDbEntity
  8
2
  6
Continuous
 62
   174
100
AcDbLine
 10
2984.57437
 20
518.25
 30
0.0
 11
2992.205651
 21
513.212757
 31
0.0
  0
LINE
  5
4D8
100
AcDbEntity
  8
2
  6
Continuous
 62
   174
100
AcDbLine
 10
2984.57437
 20
538.75
 30
0.0
 11
2992.205651
 21
533.712757
 31
0.0
  0
ARC
  5
4D9
100
AcDbEntity
  8
2
  6
Continuous
 62
   174
100
AcDbCircle
 10
2985.25
 20
541.0
 30
0.0
 40
2.25
100
AcDbArc
 50
-90.0
 51
90.0
  0
LINE
  5
4DA
100
AcDbEntity
  8
2
  6
Continuous
 62
   174
100
AcDbLine
 10
2984.57437
 20
543.25
 30
0.0
 11
2988.929914
 21
546.125
 31
0.0
  0
LINE
  5
4DB
100
AcDbEntity
  8
2
  6
Continuous
 62
   174
100
AcDbLine
 10
2990.653567
 20
821.270993
 30
0.0
 11
2900.0
 21
821.270993
 31
0.0
  0
LINE
  5
4DC
100
AcDbEntity
  8
2
  6
Continuous
 62
   174
100
AcDbLine
 10
2982.5
 20
813.073295
 30
0.0
 11
2900.0
 21
813.073295
 31
0.0
  0
LINE
  5
4DD
100
AcDbEntity
  8
2
  6
Continuous
 62
   174
100
AcDbLine
 10
2982.5
 20
813.073295
 30
0.0
 11
2990.653567
 21
821.270993
 31
0.0
  0
LINE
  5
4DE
100
AcDbEntity
  8
2
  6
Continuous
 62
   174
100
AcDbLine
 10
2992.250556
 20
965.0
 30
0.0
 11
2990.653567
 21
821.270993
 31
0.0
  0
LINE
  5
4DF
100
AcDbEntity
  8
2
  6
Continuous
 62
   174
100
AcDbLine
 10
2982.5
 20
800.0
 30
0.0
 11
2982.5
 21
813.073295
 31
0.0
  0
LINE
  5
4E0
100
AcDbEntity
  8
2
  6
Continuous
 62
   174
100
AcDbLine
 10
2989.45
 20
750.0
 30
0.0
 11
2989.45
 21
800.0
 31
0.0
  0
LINE
  5
4E1
100
AcDbEntity
  8
2
  6
Continuous
 62
   174
100
AcDbLine
 10
2989.45
 20
800.0
 30
0.0
 11
2900.0
 21
800.0
 31
0.0
  0
LINE
  5
4E2
100
AcDbEntity
  8
2
  6
Continuous
 62
   174
100
AcDbLine
 10
2989.45
 20
750.0
 30
0.0
 11
2900.0
 21
750.0
 31
0.0
  0
LINE
  5
4E3
100
AcDbEntity
  8
2
  6
Continuous
 62
   174
100
AcDbLine
 10
2984.903598
 20
749.013287
 30
0.0
 11
2992.56133
 21
742.444486
 31
0.0
  0
ARC
  5
4E4
100
AcDbEntity
  8
2
  6
Continuous
 62
   174
100
AcDbCircle
 10
2990.25
 20
739.75
 30
0.0
 40
3.55
100
AcDbArc
 50
-56.444026
 51
49.377015
  0
ARC
  5
4E5
100
AcDbEntity
  8
2
  6
Continuous
 62
   174
100
AcDbCircle
 10
2990.25
 20
719.25
 30
0.0
 40
3.55
100
AcDbArc
 50
-56.649564
 51
56.891645
  0
ARC
  5
4E6
100
AcDbEntity
  8
2
  6
Continuous
 62
   174
100
AcDbCircle
 10
2985.75
 20
750.0
 30
0.0
 40
1.3
100
AcDbArc
 50
180.0
 51
-130.622985
  0
LINE
  5
4E7
100
AcDbEntity
  8
2
  6
Continuous
 62
   174
100
AcDbLine
 10
2990.25
 20
739.75
 30
0.0
 11
2900.0
 21
739.75
 31
0.0
  0
LINE
  5
4E8
100
AcDbEntity
  8
2
  6
Continuous
 62
   174
100
AcDbLine
 10
2985.25
 20
731.75
 30
0.0
 11
2900.0
 21
731.75
 31
0.0
  0
LINE
  5
4E9
100
AcDbEntity
  8
2
  6
CENTER
 62
   174
100
AcDbLine
 10
2900.0
 20
729.5
 30
0.0
 11
2990.25
 21
729.5
 31
0.0
  0
LINE
  5
4EA
100
AcDbEntity
  8
2
  6
Continuous
 62
   174
100
AcDbLine
 10
2985.25
 20
727.25
 30
0.0
 11
2900.0
 21
727.25
 31
0.0
  0
LINE
  5
4EB
100
AcDbEntity
  8
2
  6
Continuous
 62
   174
100
AcDbLine
 10
2990.25
 20
719.25
 30
0.0
 11
2900.0
 21
719.25
 31
0.0
  0
LINE
  5
4EC
100
AcDbEntity
  8
2
  6
Continuous
 62
   174
100
AcDbLine
 10
2985.25
 20
711.25
 30
0.0
 11
2900.0
 21
711.25
 31
0.0
  0
LINE
  5
4ED
100
AcDbEntity
  8
2
  6
CENTER
 62
   174
100
AcDbLine
 10
2900.0
 20
709.0
 30
0.0
 11
2990.25
 21
709.0
 31
0.0
  0
LINE
  5
4EE
100
AcDbEntity
  8
2
  6
Continuous
 62
   174
100
AcDbLine
 10
2985.25
 20
706.75
 30
0.0
 11
2900.0
 21
706.75
 31
0.0
  0
ARC
  5
4EF
100
AcDbEntity
  8
2
  6
Continuous
 62
   174
100
AcDbCircle
 10
2985.25
 20
729.5
 30
0.0
 40
2.25
100
AcDbArc
 50
-90.0
 51
90.0
  0
LINE
  5
4F0
100
AcDbEntity
  8
2
  6
Continuous
 62
   174
100
AcDbLine
 10
2984.57437
 20
727.25
 30
0.0
 11
2992.205651
 21
722.212757
 31
0.0
  0
LINE
  5
4F1
100
AcDbEntity
  8
2
  6
Continuous
 62
   174
100
AcDbLine
 10
2984.57437
 20
731.75
 30
0.0
 11
2992.205651
 21
736.787243
 31
0.0
  0
LINE
  5
4F2
100
AcDbEntity
  8
2
  6
Continuous
 62
   174
100
AcDbLine
 10
2984.57437
 20
711.25
 30
0.0
 11
2992.205651
 21
716.287243
 31
0.0
  0
ARC
  5
4F3
100
AcDbEntity
  8
2
  6
Continuous
 62
   174
100
AcDbCircle
 10
2985.25
 20
709.0
 30
0.0
 40
2.25
100
AcDbArc
 50
-90.0
 51
90.0
  0
LINE
  5
4F4
100
AcDbEntity
  8
2
  6
Continuous
 62
   174
100
AcDbLine
 10
2984.57437
 20
706.75
 30
0.0
 11
2988.929914
 21
703.875
 31
0.0
  0
LINE
  5
4F5
100
AcDbEntity
  8
2
  6
CENTER
 62
   174
100
AcDbLine
 10
2993.8
 20
719.25
 30
0.0
 11
2993.8
 21
530.75
 31
0.0
  0
LINE
  5
4F6
100
AcDbEntity
  8
2
  6
Continuous
 62
   174
100
AcDbLine
 10
2982.5
 20
300.0
 30
0.0
 11
2900.0
 21
300.0
 31
0.0
  0
LINE
  5
4F7
100
AcDbEntity
  8
2
  6
Continuous
 62
   174
100
AcDbLine
 10
2992.250556
 20
965.0
 30
0.0
 11
2900.0
 21
965.0
 31
0.0
  0
ENDSEC
  0
SECTION
  2
OBJECTS
  0
DICTIONARY
  5
19
100
AcDbDictionary
280
     0
281
     1
  3
ACAD_GROUP
350
1A
  3
ACAD_MLINESTYLE
350
1B
  3
ACAD_LAYOUT
350
1E
  3
ACAD_PLOTSETTINGS
350
22
  3
ACAD_PLOTSTYLENAME
350
1F
  3
ACAD_WIPEOUT_VARS
350
23
  0
DICTIONARY
  5
1A
102
{ACAD_REACTORS
330
19
102
}
100
AcDbDictionary
280
     0
281
     1
  0
DICTIONARY
  5
1B
102
{ACAD_REACTORS
330
19
102
}
100
AcDbDictionary
280
     0
281
     1
  3
Standard
350
1C
  0
MLINESTYLE
  5
1C
102
{ACAD_REACTORS
330
1B
102
}
100
AcDbMlineStyle
  2
Standard
 70
     0
  3

 62
     0
 51
90.0
 52
90.0
 71
     2
 49
0.5
 62
   256
  6
BYLAYER
 49
-0.5
 62
   256
  6
BYLAYER
  0
ACDBDICTIONARYWDFLT
  5
1F
102
{ACAD_REACTORS
330
19
102
}
100
AcDbDictionary
281
     1
  3
Normal
350
1D
100
AcDbDictionaryWithDefault
340
1D
  0
ACDBPLACEHOLDER
  5
1D
102
{ACAD_REACTORS
330
1F
102
}
  0
LAYOUT
  5
20
102
{ACAD_REACTORS
330
1E
102
}
100
AcDbPlotSettings
  1

  2

  4

  6

 40
0.0
 41
0.0
 42
0.0
 43
0.0
 44
0.0
 45
0.0
 46
0.0
 47
0.0
 48
0.0
 49
0.0
140
0.0
141
0.0
142
1.0
143
1.0
 70
  1024
 72
     0
 73
     0
 74
     0
  7

 75
     0
147
1.0
148
0.0
149
0.0
100
AcDbLayout
  1
Model
 70
     0
 71
     0
 10
0.0
 20
0.0
 11
0.0
 21
0.0
 12
0.0
 22
0.0
 32
0.0
 14
0.0
 24
0.0
 34
0.0
 15
0.0
 25
0.0
 35
0.0
146
0.0
 13
0.0
 23
0.0
 33
0.0
 16
0.0
 26
0.0
 36
0.0
 17
0.0
 27
0.0
 37
0.0
 76
     0
330
A
331
0
345
0
346
0
  0
LAYOUT
  5
21
102
{ACAD_REACTORS
330
1E
102
}
100
AcDbPlotSettings
  1

  2

  4

  6

 40
0.0
 41
0.0
 42
0.0
 43
0.0
 44
0.0
 45
0.0
 46
0.0
 47
0.0
 48
0.0
 49
0.0
140
0.0
141
0.0
142
1.0
143
1.0
 70
     0
 72
     0
 73
     0
 74
     0
  7

 75
     0
147
1.0
148
0.0
149
0.0
100
AcDbLayout
  1
Layout1
 70
     0
 71
     0
 10
0.0
 20
0.0
 11
0.0
 21
0.0
 12
0.0
 22
0.0
 32
0.0
 14
0.0
 24
0.0
 34
0.0
 15
0.0
 25
0.0
 35
0.0
146
0.0
 13
0.0
 23
0.0
 33
0.0
 16
0.0
 26
0.0
 36
0.0
 17
0.0
 27
0.0
 37
0.0
 76
     0
330
B
331
0
345
0
346
0
  0
DICTIONARY
  5
1E
102
{ACAD_REACTORS
330
19
102
}
100
AcDbDictionary
280
     0
281
     1
  3
Layout1
350
21
  3
Model
350
20
  0
DICTIONARY
  5
22
102
{ACAD_REACTORS
330
19
102
}
100
AcDbDictionary
280
     0
281
     1
  0
WIPEOUTVARIABLES
  5
23
100
AcDbWipeoutVariables
 70
     1
  0
ENDSEC
  0
EOF
