  0
SECTION
  2
HEADER
  9
$ACADVER
  1
AC1015
  9
$ACADMAINTVER
 70
     6
  9
$DWGCODEPAGE
  3
DOS932
  9
$INSBASE
 10
0.0
 20
0.0
 30
0.0
  9
$EXTMIN
 10
0.0
 20
0.0
 30
0.0
  9
$EXTMAX
 10
4600.0
 20
1300.0
 30
0.0
  9
$LIMMIN
 10
0.0
 20
0.0
  9
$LIMMAX
 10
4600.0
 20
1300.0
  9
$ORTHOMODE
 70
     0
  9
$REGENMODE
 70
     1
  9
$FILLMODE
 70
     1
  9
$QTEXTMODE
 70
     0
  9
$MIRRTEXT
 70
     1
  9
$LTSCALE
 40
0.25
  9
$ATTMODE
 70
     1
  9
$TEXTSIZE
 40
3.0
  9
$TRACEWID
 40
0.05
  9
$TEXTSTYLE
  7
Standard
  9
$CLAYER
  8
0
  9
$CELTYPE
  6
Continuous
  9
$CECOLOR
 62
   256
  9
$CELTSCALE
 40
1.0
  9
$DISPSILH
 70
     0
  9
$DIMSCALE
 40
1.0
  9
$DIMASZ
 40
2.5
  9
$DIMEXO
 40
2.0
  9
$DIMDLI
 40
10.0
  9
$DIMRND
 40
0.0
  9
$DIMDLE
 40
0.0
  9
$DIMEXE
 40
2.0
  9
$DIMTP
 40
0.0
  9
$DIMTM
 40
0.0
  9
$DIMTXT
 40
3.0
  9
$DIMCEN
 40
0.09
  9
$DIMTSZ
 40
0.0
  9
$DIMTOL
 70
     0
  9
$DIMLIM
 70
     0
  9
$DIMTIH
 70
     0
  9
$DIMTOH
 70
     0
  9
$DIMSE1
 70
     0
  9
$DIMSE2
 70
     0
  9
$DIMTAD
 70
     3
  9
$DIMZIN
 70
     0
  9
$DIMBLK
  1

  9
$DIMASO
 70
     1
  9
$DIMSHO
 70
     1
  9
$DIMPOST
  1

  9
$DIMAPOST
  1

  9
$DIMALT
 70
     0
  9
$DIMALTD
 70
     2
  9
$DIMALTF
 40
25.4
  9
$DIMLFAC
 40
1.0
  9
$DIMTOFL
 70
     1
  9
$DIMTVP
 40
0.7
  9
$DIMTIX
 70
     0
  9
$DIMSOXD
 70
     0
  9
$DIMSAH
 70
     0
  9
$DIMBLK1
  1

  9
$DIMBLK2
  1

  9
$DIMSTYLE
  2
Standard
  9
$DIMCLRD
 70
     0
  9
$DIMCLRE
 70
     0
  9
$DIMCLRT
 70
     0
  9
$DIMTFAC
 40
0.5
  9
$DIMGAP
 40
0.0
  9
$DIMJUST
 70
     0
  9
$DIMSD1
 70
     0
  9
$DIMSD2
 70
     0
  9
$DIMTOLJ
 70
     1
  9
$DIMTZIN
 70
     0
  9
$DIMALTZ
 70
     0
  9
$DIMALTTZ
 70
     0
  9
$DIMUPT
 70
     0
  9
$DIMDEC
 70
     2
  9
$DIMTDEC
 70
     4
  9
$DIMALTU
 70
     2
  9
$DIMALTTD
 70
     2
  9
$DIMTXSTY
  7
Standard
  9
$DIMAUNIT
 70
     0
  9
$DIMADEC
 70
     0
  9
$DIMALTRND
 40
0.0
  9
$DIMAZIN
 70
     0
  9
$DIMDSEP
 70
     0
  9
$DIMATFIT
 70
     3
  9
$DIMFRAC
 70
     0
  9
$DIMLDRBLK
  1

  9
$DIMLUNIT
 70
     2
  9
$DIMLWD
 70
     0
  9
$DIMLWE
 70
     0
  9
$DIMTMOVE
 70
     0
  9
$LUNITS
 70
     2
  9
$LUPREC
 70
     4
  9
$SKETCHINC
 40
0.1
  9
$FILLETRAD
 40
0.0
  9
$AUNITS
 70
     0
  9
$AUPREC
 70
     0
  9
$MENU
  1
acad
  9
$ELEVATION
 40
0.0
  9
$PELEVATION
 40
0.0
  9
$THICKNESS
 40
0.0
  9
$LIMCHECK
 70
     0
  9
$CHAMFERA
 40
0.0
  9
$CHAMFERB
 40
0.0
  9
$CHAMFERC
 40
0.0
  9
$CHAMFERD
 40
0.0
  9
$SKPOLY
 70
     0
  9
$TDCREATE
 40
2459124.477118055
  9
$TDUCREATE
 40
0.000000000
  9
$TDUPDATE
 40
2459124.477118055
  9
$TDUUPDATE
 40
0.000000000
  9
$TDINDWG
 40
0.0000000000
  9
$TDUSRTIMER
 40
0.0000000000
  9
$USRTIMER
 70
     1
  9
$ANGBASE
 50
0.0
  9
$ANGDIR
 70
     0
  9
$PDMODE
 70
     0
  9
$PDSIZE
 40
0.0
  9
$PLINEWID
 40
0.0
  9
$SPLFRAME
 70
     0
  9
$SPLINETYPE
 70
     6
  9
$SPLINESEGS
 70
     8
  9
$HANDSEED
  5
5C1
  9
$SURFTAB1
 70
     6
  9
$SURFTAB2
 70
     6
  9
$SURFTYPE
 70
     6
  9
$SURFU
 70
     6
  9
$SURFV
 70
     6
  9
$UCSBASE
  2

  9
$UCSNAME
  2

  9
$UCSORG
 10
0.0
 20
0.0
 30
0.0
  9
$UCSXDIR
 10
1.0
 20
0.0
 30
0.0
  9
$UCSYDIR
 10
0.0
 20
1.0
 30
0.0
  9
$UCSORTHOREF
  2

  9
$UCSORTHOVIEW
 70
     0
  9
$UCSORGTOP
 10
0.0
 20
0.0
 30
0.0
  9
$UCSORGBOTTOM
 10
0.0
 20
0.0
 30
0.0
  9
$UCSORGLEFT
 10
0.0
 20
0.0
 30
0.0
  9
$UCSORGRIGHT
 10
0.0
 20
0.0
 30
0.0
  9
$UCSORGFRONT
 10
0.0
 20
0.0
 30
0.0
  9
$UCSORGBACK
 10
0.0
 20
0.0
 30
0.0
  9
$PUCSBASE
  2

  9
$PUCSNAME
  2

  9
$PUCSORG
 10
0.0
 20
0.0
 30
0.0
  9
$PUCSXDIR
 10
1.0
 20
0.0
 30
0.0
  9
$PUCSYDIR
 10
0.0
 20
1.0
 30
0.0
  9
$PUCSORTHOREF
  2

  9
$PUCSORTHOVIEW
 70
     0
  9
$PUCSORGTOP
 10
0.0
 20
0.0
 30
0.0
  9
$PUCSORGBOTTOM
 10
0.0
 20
0.0
 30
0.0
  9
$PUCSORGLEFT
 10
0.0
 20
0.0
 30
0.0
  9
$PUCSORGRIGHT
 10
0.0
 20
0.0
 30
0.0
  9
$PUCSORGFRONT
 10
0.0
 20
0.0
 30
0.0
  9
$PUCSORGBACK
 10
0.0
 20
0.0
 30
0.0
  9
$USERI1
 70
     0
  9
$USERI2
 70
     0
  9
$USERI3
 70
     0
  9
$USERI4
 70
     0
  9
$USERI5
 70
     0
  9
$USERR1
 40
0.0
  9
$USERR2
 40
0.0
  9
$USERR3
 40
0.0
  9
$USERR4
 40
0.0
  9
$USERR5
 40
0.0
  9
$WORLDVIEW
 70
     1
  9
$SHADEDGE
 70
     3
  9
$SHADEDIF
 70
    70
  9
$TILEMODE
 70
     1
  9
$MAXACTVP
 70
    16
  9
$PINSBASE
 10
0.0
 20
0.0
 30
0.0
  9
$PLIMCHECK
 70
     0
  9
$PEXTMIN
 10
0.0
 20
0.0
 30
0.0
  9
$PEXTMAX
 10
4600.0
 20
1300.0
 30
0.0
  9
$PLIMMIN
 10
0.0
 20
0.0
  9
$PLIMMAX
 10
4600.0
 20
1300.0
  9
$UNITMODE
 70
     0
  9
$VISRETAIN
 70
     0
  9
$PLINEGEN
 70
     1
  9
$PSLTSCALE
 70
     0
  9
$TREEDEPTH
 70
  3020
  9
$CMLSTYLE
  2
Standard
  9
$CMLJUST
 70
     0
  9
$CMLSCALE
 40
1.0
  9
$PROXYGRAPHICS
 70
     0
  9
$MEASUREMENT
 70
     0
  9
$CELWEIGHT
370
     0
  9
$ENDCAPS
280
     0
  9
$JOINSTYLE
280
     0
  9
$LWDISPLAY
290
     0
  9
$INSUNITS
 70
     0
  9
$HYPERLINKBASE
  1

  9
$XEDIT
290
     1
  9
$CEPSNTYPE
380
     0
  9
$PSTYLEMODE
290
     1
  9
$FINGERPRINTGUID
  2

  9
$VERSIONGUID
  2

  9
$EXTNAMES
290
     1
  9
$PSVPSCALE
 40
0.0
  0
ENDSEC
  0
SECTION
  2
CLASSES
  0
CLASS
  1
LWPOLYLINE
  2
AcDbPolyline
  3
AutoCAD 2000
 90
    32768
280
     0
281
     1
  0
CLASS
  1
IMAGE
  2
AcDbRasterImage
  3
ISM
 90
    32895
280
     0
281
     1
  0
CLASS
  1
OLE2FRAME
  2
AcDbOle2Frame
  3
AutoCAD 2000
 90
    32768
280
     0
281
     1
  0
CLASS
  1
HATCH
  2
AcDbHatch
  3
AutoCAD 2000
 90
    32768
280
     0
281
     1
  0
CLASS
  1
DICTIONARYVAR
  2
AcDbDictionaryVar
  3
AutoCAD 2000
 90
    32768
280
     0
281
     0
  0
CLASS
  1
RASTERVARIABLES
  2
AcDbRasterVariables
  3
ISM
 90
    32768
280
     0
281
     0
  0
CLASS
  1
IMAGEDEF
  2
AcDbRasterImageDef
  3
ISM
 90
    32768
280
     0
281
     0
  0
CLASS
  1
IMAGEDEF_REACTOR
  2
AcDbRasterImageDefReactor
  3
ISM
 90
    32769
280
     0
281
     0
  0
CLASS
  1
IDBUFFER
  2
AcDbIdBuffer
  3
AutoCAD 2000
 90
    32768
280
     0
281
     0
  0
CLASS
  1
SPATIAL_FILTER
  2
AcDbSpatialFilter
  3
AutoCAD 2000
 90
    32768
280
     0
281
     0
  0
CLASS
  1
XRECORD
  2
AcDbXrecord
  3
AutoCAD 2000
 90
    32768
280
     0
281
     0
  0
CLASS
  1
SORTENTSTABLE
  2
AcDbSortentsTable
  3
AutoCAD 2000
 90
    32768
280
     0
281
     0
  0
CLASS
  1
LAYER_INDEX
  2
AcDbLayerIndex
  3
AutoCAD 2000
 90
    32768
280
     0
281
     0
  0
CLASS
  1
SPATIAL_INDEX
  2
AcDbSpatialIndex
  3
AutoCAD 2000
 90
    32768
280
     0
281
     0
  0
CLASS
  1
OBJECT_PTR
  2
CAseDLPNTableRecord
  3
"ASE-LPNTableRecord"
 90
    32769
280
     0
281
     0
  0
CLASS
  1
LAYOUT
  2
AcDbLayout
  3
AutoCAD 2000
 90
        0
280
     0
281
     0
  0
CLASS
  1
PLOTSETTINGS
  2
AcDbPlotSettings
  3
AutoCAD 2000
 90
    32768
280
     0
281
     0
  0
CLASS
  1
ACDBDICTIONARYWDFLT
  2
AcDbDictionaryWithDefault
  3
AutoCAD 2000
 90
        0
280
     0
281
     0
  0
CLASS
  1
ACDBPLACEHOLDER
  2
AcDbPlaceHolder
  3
AutoCAD 2000
 90
        0
280
     0
281
     0
  0
CLASS
  1
VBA_PROJECT
  2
AcDbVbaProject
  3
acadvba
 90
    32768
280
     0
281
     0
  0
CLASS
  1
WIPEOUT
  2
AcDbWipeout
  3
WipeOut|AutoCAD Express Tool|expresstools@autodesk.com
 90
    32895
280
     0
281
     1
  0
CLASS
  1
WIPEOUTVARIABLES
  2
AcDbWipeoutVariables
  3
WipeOut|AutoCAD Express Tool|expresstools@autodesk.com
 90
        0
280
     0
281
     0
  0
CLASS
  1
RTEXT
  2
RText
  3
RText|AutoCAD Express Tool|expresstools@autodesk.com
 90
    32768
280
     0
281
     1
  0
CLASS
  1
ARCALIGNEDTEXT
  2
AcDbArcAlignedText
  3
ATEXT|AutoCAD Express Tool|expresstools@autodesk.com
 90
    32768
280
     0
281
     1
  0
ENDSEC
  0
SECTION
  2
TABLES
  0
TABLE
  2
VPORT
  5
7
100
AcDbSymbolTable
 70
     1
  0
VPORT
  5
15
100
AcDbSymbolTableRecord
100
AcDbViewportTableRecord
  2
*ACTIVE
 70
     0
 10
0.0
 20
0.0
 11
1.0
 21
1.0
 12
6.591288
 22
4.579184
 13
0.0
 23
0.0
 14
1.0
 24
1.0
 15
0.0
 25
0.0
 16
0.0
 26
0.0
 36
1.0
 17
0.0
 27
0.0
 37
0.0
 40
9.158369
 41
0.688564
 42
50.0
 43
0.0
 44
0.0
 50
0.0
 51
0.0
 71
     0
 72
   100
 73
     1
 74
     1
 75
     0
 76
     0
 77
     0
 78
     0
281
     0
 65
     0
110
0.0
120
0.0
130
0.0
111
1.0
121
0.0
131
0.0
112
0.0
122
1.0
132
0.0
345
0
346
0
 79
     0
146
0.0
  0
ENDTAB
  0
TABLE
  2
LTYPE
  5
4
100
AcDbSymbolTable
 70
     9
  0
LTYPE
  5
11
100
AcDbSymbolTableRecord
100
AcDbLinetypeTableRecord
  2
ByBlock
 70
    64
  3

 72
    65
 73
     0
 40
0.0
  0
LTYPE
  5
12
100
AcDbSymbolTableRecord
100
AcDbLinetypeTableRecord
  2
ByLayer
 70
    64
  3

 72
    65
 73
     0
 40
0.0
  0
LTYPE
  5
13
100
AcDbSymbolTableRecord
100
AcDbLinetypeTableRecord
  2
Continuous
 70
    64
  3
Solid line
 72
    65
 73
     0
 40
0.0
  0
LTYPE
  5
24
100
AcDbSymbolTableRecord
100
AcDbLinetypeTableRecord
  2
HIDDEN
 70
    64
  3
- - - - - - - - 
 72
    65
 73
     2
 40
12.6
 49
8.4
 74
     0
 49
-4.2
 74
     0
  0
LTYPE
  5
25
100
AcDbSymbolTableRecord
100
AcDbLinetypeTableRecord
  2
DOT
 70
    64
  3
･ ･ ･ ･ ･ ･ ･ ･ 
 72
    65
 73
     2
 40
8.0
 49
6.0
 74
     0
 49
-2.0
 74
     0
  0
LTYPE
  5
26
100
AcDbSymbolTableRecord
100
AcDbLinetypeTableRecord
  2
CENTER
 70
    64
  3
- ･ - ･ - ･ - ･ 
 72
    65
 73
     4
 40
50.5
 49
30.0
 74
     0
 49
-9.0
 74
     0
 49
2.5
 74
     0
 49
-9.0
 74
     0
  0
LTYPE
  5
27
100
AcDbSymbolTableRecord
100
AcDbLinetypeTableRecord
  2
PHANTOM
 70
    64
  3
- ･･ - ･･ - ･･ - ･･ 
 72
    65
 73
     6
 40
58.0
 49
30.0
 74
     0
 49
-9.0
 74
     0
 49
2.5
 74
     0
 49
-5.0
 74
     0
 49
2.5
 74
     0
 49
-9.0
 74
     0
  0
LTYPE
  5
28
100
AcDbSymbolTableRecord
100
AcDbLinetypeTableRecord
  2
ACAD_ISO06W100
 70
    64
  3
____ ... ____ ... ____
 72
    65
 73
     8
 40
37.5
 49
24.0
 74
     0
 49
-3.0
 74
     0
 49
0.5
 74
     0
 49
-3.0
 74
     0
 49
0.5
 74
     0
 49
-3.0
 74
     0
 49
0.5
 74
     0
 49
-3.0
 74
     0
  0
LTYPE
  5
29
100
AcDbSymbolTableRecord
100
AcDbLinetypeTableRecord
  2
ACAD_ISO14W100
 70
    64
  3
__ . . . __ . . . __ . . . 
 72
    65
 73
     8
 40
25.5
 49
12.0
 74
     0
 49
-3.0
 74
     0
 49
0.5
 74
     0
 49
-3.0
 74
     0
 49
0.5
 74
     0
 49
-3.0
 74
     0
 49
0.5
 74
     0
 49
-3.0
 74
     0
  0
ENDTAB
  0
TABLE
  2
LAYER
  5
2
100
AcDbSymbolTable
 70
   130
  0
LAYER
  5
14
100
AcDbSymbolTableRecord
100
AcDbLayerTableRecord
  2
0
 70
     0
 62
     7
  6
Continuous
290
     1
370
    -3
390
1D
  0
LAYER
  5
2A
100
AcDbSymbolTableRecord
100
AcDbLayerTableRecord
  2
1
 70
     0
 62
     7
  6
Continuous
290
     1
370
    -3
390
1F
  0
LAYER
  5
2B
100
AcDbSymbolTableRecord
100
AcDbLayerTableRecord
  2
2
 70
     0
 62
     1
  6
Continuous
290
     1
370
    -3
390
1F
  0
LAYER
  5
2C
100
AcDbSymbolTableRecord
100
AcDbLayerTableRecord
  2
3
 70
     0
 62
     3
  6
Continuous
290
     1
370
    -3
390
1F
  0
LAYER
  5
2D
100
AcDbSymbolTableRecord
100
AcDbLayerTableRecord
  2
4
 70
     0
 62
     6
  6
Continuous
290
     1
370
    -3
390
1F
  0
LAYER
  5
2E
100
AcDbSymbolTableRecord
100
AcDbLayerTableRecord
  2
5
 70
     0
 62
     2
  6
Continuous
290
     1
370
    -3
390
1F
  0
LAYER
  5
2F
100
AcDbSymbolTableRecord
100
AcDbLayerTableRecord
  2
6
 70
     0
 62
     5
  6
Continuous
290
     1
370
    -3
390
1F
  0
LAYER
  5
30
100
AcDbSymbolTableRecord
100
AcDbLayerTableRecord
  2
7
 70
     0
 62
     4
  6
Continuous
290
     1
370
    -3
390
1F
  0
LAYER
  5
31
100
AcDbSymbolTableRecord
100
AcDbLayerTableRecord
  2
8
 70
     0
 62
     3
  6
Continuous
290
     1
370
    -3
390
1F
  0
LAYER
  5
32
100
AcDbSymbolTableRecord
100
AcDbLayerTableRecord
  2
9
 70
     0
 62
     6
  6
Continuous
290
     1
370
    -3
390
1F
  0
LAYER
  5
33
100
AcDbSymbolTableRecord
100
AcDbLayerTableRecord
  2
10
 70
     0
 62
     2
  6
Continuous
290
     1
370
    -3
390
1F
  0
LAYER
  5
34
100
AcDbSymbolTableRecord
100
AcDbLayerTableRecord
  2
11
 70
     0
 62
     7
  6
Continuous
290
     1
370
    -3
390
1F
  0
LAYER
  5
35
100
AcDbSymbolTableRecord
100
AcDbLayerTableRecord
  2
12
 70
     0
 62
     4
  6
Continuous
290
     1
370
    -3
390
1F
  0
LAYER
  5
36
100
AcDbSymbolTableRecord
100
AcDbLayerTableRecord
  2
13
 70
     0
 62
     3
  6
Continuous
290
     1
370
    -3
390
1F
  0
LAYER
  5
37
100
AcDbSymbolTableRecord
100
AcDbLayerTableRecord
  2
14
 70
     0
 62
     6
  6
Continuous
290
     1
370
    -3
390
1F
  0
LAYER
  5
38
100
AcDbSymbolTableRecord
100
AcDbLayerTableRecord
  2
15
 70
     0
 62
     2
  6
Continuous
290
     1
370
    -3
390
1F
  0
LAYER
  5
39
100
AcDbSymbolTableRecord
100
AcDbLayerTableRecord
  2
16
 70
     0
 62
     7
  6
Continuous
290
     1
370
    -3
390
1F
  0
LAYER
  5
3A
100
AcDbSymbolTableRecord
100
AcDbLayerTableRecord
  2
17
 70
     0
 62
     4
  6
Continuous
290
     1
370
    -3
390
1F
  0
LAYER
  5
3B
100
AcDbSymbolTableRecord
100
AcDbLayerTableRecord
  2
18
 70
     0
 62
     3
  6
Continuous
290
     1
370
    -3
390
1F
  0
LAYER
  5
3C
100
AcDbSymbolTableRecord
100
AcDbLayerTableRecord
  2
19
 70
     0
 62
     6
  6
Continuous
290
     1
370
    -3
390
1F
  0
LAYER
  5
3D
100
AcDbSymbolTableRecord
100
AcDbLayerTableRecord
  2
20
 70
     0
 62
     2
  6
Continuous
290
     1
370
    -3
390
1F
  0
LAYER
  5
3E
100
AcDbSymbolTableRecord
100
AcDbLayerTableRecord
  2
21
 70
     0
 62
     7
  6
Continuous
290
     1
370
    -3
390
1F
  0
LAYER
  5
3F
100
AcDbSymbolTableRecord
100
AcDbLayerTableRecord
  2
22
 70
     0
 62
     4
  6
Continuous
290
     1
370
    -3
390
1F
  0
LAYER
  5
40
100
AcDbSymbolTableRecord
100
AcDbLayerTableRecord
  2
23
 70
     0
 62
     3
  6
Continuous
290
     1
370
    -3
390
1F
  0
LAYER
  5
41
100
AcDbSymbolTableRecord
100
AcDbLayerTableRecord
  2
24
 70
     0
 62
     6
  6
Continuous
290
     1
370
    -3
390
1F
  0
LAYER
  5
42
100
AcDbSymbolTableRecord
100
AcDbLayerTableRecord
  2
25
 70
     0
 62
     2
  6
Continuous
290
     1
370
    -3
390
1F
  0
LAYER
  5
43
100
AcDbSymbolTableRecord
100
AcDbLayerTableRecord
  2
26
 70
     0
 62
     7
  6
Continuous
290
     1
370
    -3
390
1F
  0
LAYER
  5
44
100
AcDbSymbolTableRecord
100
AcDbLayerTableRecord
  2
27
 70
     0
 62
     4
  6
Continuous
290
     1
370
    -3
390
1F
  0
LAYER
  5
45
100
AcDbSymbolTableRecord
100
AcDbLayerTableRecord
  2
28
 70
     0
 62
     3
  6
Continuous
290
     1
370
    -3
390
1F
  0
LAYER
  5
46
100
AcDbSymbolTableRecord
100
AcDbLayerTableRecord
  2
29
 70
     0
 62
     6
  6
Continuous
290
     1
370
    -3
390
1F
  0
LAYER
  5
47
100
AcDbSymbolTableRecord
100
AcDbLayerTableRecord
  2
30
 70
     0
 62
     2
  6
Continuous
290
     1
370
    -3
390
1F
  0
LAYER
  5
48
100
AcDbSymbolTableRecord
100
AcDbLayerTableRecord
  2
31
 70
     0
 62
     7
  6
Continuous
290
     1
370
    -3
390
1F
  0
LAYER
  5
49
100
AcDbSymbolTableRecord
100
AcDbLayerTableRecord
  2
32
 70
     0
 62
     4
  6
Continuous
290
     1
370
    -3
390
1F
  0
LAYER
  5
4A
100
AcDbSymbolTableRecord
100
AcDbLayerTableRecord
  2
33
 70
     0
 62
     3
  6
Continuous
290
     1
370
    -3
390
1F
  0
LAYER
  5
4B
100
AcDbSymbolTableRecord
100
AcDbLayerTableRecord
  2
34
 70
     0
 62
     6
  6
Continuous
290
     1
370
    -3
390
1F
  0
LAYER
  5
4C
100
AcDbSymbolTableRecord
100
AcDbLayerTableRecord
  2
35
 70
     0
 62
     2
  6
Continuous
290
     1
370
    -3
390
1F
  0
LAYER
  5
4D
100
AcDbSymbolTableRecord
100
AcDbLayerTableRecord
  2
36
 70
     0
 62
     7
  6
Continuous
290
     1
370
    -3
390
1F
  0
LAYER
  5
4E
100
AcDbSymbolTableRecord
100
AcDbLayerTableRecord
  2
37
 70
     0
 62
     4
  6
Continuous
290
     1
370
    -3
390
1F
  0
LAYER
  5
4F
100
AcDbSymbolTableRecord
100
AcDbLayerTableRecord
  2
38
 70
     0
 62
     3
  6
Continuous
290
     1
370
    -3
390
1F
  0
LAYER
  5
50
100
AcDbSymbolTableRecord
100
AcDbLayerTableRecord
  2
39
 70
     0
 62
     6
  6
Continuous
290
     1
370
    -3
390
1F
  0
LAYER
  5
51
100
AcDbSymbolTableRecord
100
AcDbLayerTableRecord
  2
40
 70
     0
 62
     2
  6
Continuous
290
     1
370
    -3
390
1F
  0
LAYER
  5
52
100
AcDbSymbolTableRecord
100
AcDbLayerTableRecord
  2
41
 70
     0
 62
     7
  6
Continuous
290
     1
370
    -3
390
1F
  0
LAYER
  5
53
100
AcDbSymbolTableRecord
100
AcDbLayerTableRecord
  2
42
 70
     0
 62
     4
  6
Continuous
290
     1
370
    -3
390
1F
  0
LAYER
  5
54
100
AcDbSymbolTableRecord
100
AcDbLayerTableRecord
  2
43
 70
     0
 62
     3
  6
Continuous
290
     1
370
    -3
390
1F
  0
LAYER
  5
55
100
AcDbSymbolTableRecord
100
AcDbLayerTableRecord
  2
44
 70
     0
 62
     6
  6
Continuous
290
     1
370
    -3
390
1F
  0
LAYER
  5
56
100
AcDbSymbolTableRecord
100
AcDbLayerTableRecord
  2
45
 70
     0
 62
     2
  6
Continuous
290
     1
370
    -3
390
1F
  0
LAYER
  5
57
100
AcDbSymbolTableRecord
100
AcDbLayerTableRecord
  2
46
 70
     0
 62
     7
  6
Continuous
290
     1
370
    -3
390
1F
  0
LAYER
  5
58
100
AcDbSymbolTableRecord
100
AcDbLayerTableRecord
  2
47
 70
     0
 62
     4
  6
Continuous
290
     1
370
    -3
390
1F
  0
LAYER
  5
59
100
AcDbSymbolTableRecord
100
AcDbLayerTableRecord
  2
48
 70
     0
 62
     3
  6
Continuous
290
     1
370
    -3
390
1F
  0
LAYER
  5
5A
100
AcDbSymbolTableRecord
100
AcDbLayerTableRecord
  2
49
 70
     0
 62
     6
  6
Continuous
290
     1
370
    -3
390
1F
  0
LAYER
  5
5B
100
AcDbSymbolTableRecord
100
AcDbLayerTableRecord
  2
50
 70
     0
 62
     2
  6
Continuous
290
     1
370
    -3
390
1F
  0
LAYER
  5
5C
100
AcDbSymbolTableRecord
100
AcDbLayerTableRecord
  2
51
 70
     0
 62
     7
  6
Continuous
290
     1
370
    -3
390
1F
  0
LAYER
  5
5D
100
AcDbSymbolTableRecord
100
AcDbLayerTableRecord
  2
52
 70
     0
 62
     4
  6
Continuous
290
     1
370
    -3
390
1F
  0
LAYER
  5
5E
100
AcDbSymbolTableRecord
100
AcDbLayerTableRecord
  2
53
 70
     0
 62
     3
  6
Continuous
290
     1
370
    -3
390
1F
  0
LAYER
  5
5F
100
AcDbSymbolTableRecord
100
AcDbLayerTableRecord
  2
54
 70
     0
 62
     6
  6
Continuous
290
     1
370
    -3
390
1F
  0
LAYER
  5
60
100
AcDbSymbolTableRecord
100
AcDbLayerTableRecord
  2
55
 70
     0
 62
     2
  6
Continuous
290
     1
370
    -3
390
1F
  0
LAYER
  5
61
100
AcDbSymbolTableRecord
100
AcDbLayerTableRecord
  2
56
 70
     0
 62
     7
  6
Continuous
290
     1
370
    -3
390
1F
  0
LAYER
  5
62
100
AcDbSymbolTableRecord
100
AcDbLayerTableRecord
  2
57
 70
     0
 62
     4
  6
Continuous
290
     1
370
    -3
390
1F
  0
LAYER
  5
63
100
AcDbSymbolTableRecord
100
AcDbLayerTableRecord
  2
58
 70
     0
 62
     3
  6
Continuous
290
     1
370
    -3
390
1F
  0
LAYER
  5
64
100
AcDbSymbolTableRecord
100
AcDbLayerTableRecord
  2
59
 70
     0
 62
     6
  6
Continuous
290
     1
370
    -3
390
1F
  0
LAYER
  5
65
100
AcDbSymbolTableRecord
100
AcDbLayerTableRecord
  2
60
 70
     0
 62
     2
  6
Continuous
290
     1
370
    -3
390
1F
  0
LAYER
  5
66
100
AcDbSymbolTableRecord
100
AcDbLayerTableRecord
  2
61
 70
     0
 62
     7
  6
Continuous
290
     1
370
    -3
390
1F
  0
LAYER
  5
67
100
AcDbSymbolTableRecord
100
AcDbLayerTableRecord
  2
62
 70
     0
 62
     4
  6
Continuous
290
     1
370
    -3
390
1F
  0
LAYER
  5
68
100
AcDbSymbolTableRecord
100
AcDbLayerTableRecord
  2
63
 70
     0
 62
     3
  6
Continuous
290
     1
370
    -3
390
1F
  0
LAYER
  5
69
100
AcDbSymbolTableRecord
100
AcDbLayerTableRecord
  2
64
 70
     0
 62
     6
  6
Continuous
290
     1
370
    -3
390
1F
  0
LAYER
  5
6A
100
AcDbSymbolTableRecord
100
AcDbLayerTableRecord
  2
65
 70
     0
 62
     2
  6
Continuous
290
     1
370
    -3
390
1F
  0
LAYER
  5
6B
100
AcDbSymbolTableRecord
100
AcDbLayerTableRecord
  2
66
 70
     0
 62
     7
  6
Continuous
290
     1
370
    -3
390
1F
  0
LAYER
  5
6C
100
AcDbSymbolTableRecord
100
AcDbLayerTableRecord
  2
67
 70
     0
 62
     4
  6
Continuous
290
     1
370
    -3
390
1F
  0
LAYER
  5
6D
100
AcDbSymbolTableRecord
100
AcDbLayerTableRecord
  2
68
 70
     0
 62
     3
  6
Continuous
290
     1
370
    -3
390
1F
  0
LAYER
  5
6E
100
AcDbSymbolTableRecord
100
AcDbLayerTableRecord
  2
69
 70
     0
 62
     6
  6
Continuous
290
     1
370
    -3
390
1F
  0
LAYER
  5
6F
100
AcDbSymbolTableRecord
100
AcDbLayerTableRecord
  2
70
 70
     0
 62
     2
  6
Continuous
290
     1
370
    -3
390
1F
  0
LAYER
  5
70
100
AcDbSymbolTableRecord
100
AcDbLayerTableRecord
  2
71
 70
     0
 62
     7
  6
Continuous
290
     1
370
    -3
390
1F
  0
LAYER
  5
71
100
AcDbSymbolTableRecord
100
AcDbLayerTableRecord
  2
72
 70
     0
 62
     4
  6
Continuous
290
     1
370
    -3
390
1F
  0
LAYER
  5
72
100
AcDbSymbolTableRecord
100
AcDbLayerTableRecord
  2
73
 70
     0
 62
     3
  6
Continuous
290
     1
370
    -3
390
1F
  0
LAYER
  5
73
100
AcDbSymbolTableRecord
100
AcDbLayerTableRecord
  2
74
 70
     0
 62
     6
  6
Continuous
290
     1
370
    -3
390
1F
  0
LAYER
  5
74
100
AcDbSymbolTableRecord
100
AcDbLayerTableRecord
  2
75
 70
     0
 62
     2
  6
Continuous
290
     1
370
    -3
390
1F
  0
LAYER
  5
75
100
AcDbSymbolTableRecord
100
AcDbLayerTableRecord
  2
76
 70
     0
 62
     7
  6
Continuous
290
     1
370
    -3
390
1F
  0
LAYER
  5
76
100
AcDbSymbolTableRecord
100
AcDbLayerTableRecord
  2
77
 70
     0
 62
     4
  6
Continuous
290
     1
370
    -3
390
1F
  0
LAYER
  5
77
100
AcDbSymbolTableRecord
100
AcDbLayerTableRecord
  2
78
 70
     0
 62
     3
  6
Continuous
290
     1
370
    -3
390
1F
  0
LAYER
  5
78
100
AcDbSymbolTableRecord
100
AcDbLayerTableRecord
  2
79
 70
     0
 62
     6
  6
Continuous
290
     1
370
    -3
390
1F
  0
LAYER
  5
79
100
AcDbSymbolTableRecord
100
AcDbLayerTableRecord
  2
80
 70
     0
 62
     2
  6
Continuous
290
     1
370
    -3
390
1F
  0
LAYER
  5
7A
100
AcDbSymbolTableRecord
100
AcDbLayerTableRecord
  2
81
 70
     0
 62
     7
  6
Continuous
290
     1
370
    -3
390
1F
  0
LAYER
  5
7B
100
AcDbSymbolTableRecord
100
AcDbLayerTableRecord
  2
82
 70
     0
 62
     4
  6
Continuous
290
     1
370
    -3
390
1F
  0
LAYER
  5
7C
100
AcDbSymbolTableRecord
100
AcDbLayerTableRecord
  2
83
 70
     0
 62
     3
  6
Continuous
290
     1
370
    -3
390
1F
  0
LAYER
  5
7D
100
AcDbSymbolTableRecord
100
AcDbLayerTableRecord
  2
84
 70
     0
 62
     6
  6
Continuous
290
     1
370
    -3
390
1F
  0
LAYER
  5
7E
100
AcDbSymbolTableRecord
100
AcDbLayerTableRecord
  2
85
 70
     0
 62
     2
  6
Continuous
290
     1
370
    -3
390
1F
  0
LAYER
  5
7F
100
AcDbSymbolTableRecord
100
AcDbLayerTableRecord
  2
86
 70
     0
 62
     7
  6
Continuous
290
     1
370
    -3
390
1F
  0
LAYER
  5
80
100
AcDbSymbolTableRecord
100
AcDbLayerTableRecord
  2
87
 70
     0
 62
     4
  6
Continuous
290
     1
370
    -3
390
1F
  0
LAYER
  5
81
100
AcDbSymbolTableRecord
100
AcDbLayerTableRecord
  2
88
 70
     0
 62
     3
  6
Continuous
290
     1
370
    -3
390
1F
  0
LAYER
  5
82
100
AcDbSymbolTableRecord
100
AcDbLayerTableRecord
  2
89
 70
     0
 62
     6
  6
Continuous
290
     1
370
    -3
390
1F
  0
LAYER
  5
83
100
AcDbSymbolTableRecord
100
AcDbLayerTableRecord
  2
90
 70
     0
 62
     2
  6
Continuous
290
     1
370
    -3
390
1F
  0
LAYER
  5
84
100
AcDbSymbolTableRecord
100
AcDbLayerTableRecord
  2
91
 70
     0
 62
     7
  6
Continuous
290
     1
370
    -3
390
1F
  0
LAYER
  5
85
100
AcDbSymbolTableRecord
100
AcDbLayerTableRecord
  2
92
 70
     0
 62
     4
  6
Continuous
290
     1
370
    -3
390
1F
  0
LAYER
  5
86
100
AcDbSymbolTableRecord
100
AcDbLayerTableRecord
  2
93
 70
     0
 62
     3
  6
Continuous
290
     1
370
    -3
390
1F
  0
LAYER
  5
87
100
AcDbSymbolTableRecord
100
AcDbLayerTableRecord
  2
94
 70
     0
 62
     6
  6
Continuous
290
     1
370
    -3
390
1F
  0
LAYER
  5
88
100
AcDbSymbolTableRecord
100
AcDbLayerTableRecord
  2
95
 70
     0
 62
     2
  6
Continuous
290
     1
370
    -3
390
1F
  0
LAYER
  5
89
100
AcDbSymbolTableRecord
100
AcDbLayerTableRecord
  2
96
 70
     0
 62
     7
  6
Continuous
290
     1
370
    -3
390
1F
  0
LAYER
  5
8A
100
AcDbSymbolTableRecord
100
AcDbLayerTableRecord
  2
97
 70
     0
 62
     4
  6
Continuous
290
     1
370
    -3
390
1F
  0
LAYER
  5
8B
100
AcDbSymbolTableRecord
100
AcDbLayerTableRecord
  2
98
 70
     0
 62
     3
  6
Continuous
290
     1
370
    -3
390
1F
  0
LAYER
  5
8C
100
AcDbSymbolTableRecord
100
AcDbLayerTableRecord
  2
99
 70
     0
 62
     6
  6
Continuous
290
     1
370
    -3
390
1F
  0
LAYER
  5
8D
100
AcDbSymbolTableRecord
100
AcDbLayerTableRecord
  2
100
 70
     0
 62
     2
  6
Continuous
290
     1
370
    -3
390
1F
  0
LAYER
  5
8E
100
AcDbSymbolTableRecord
100
AcDbLayerTableRecord
  2
101
 70
     0
 62
     7
  6
Continuous
290
     1
370
    -3
390
1F
  0
LAYER
  5
8F
100
AcDbSymbolTableRecord
100
AcDbLayerTableRecord
  2
102
 70
     0
 62
     4
  6
Continuous
290
     1
370
    -3
390
1F
  0
LAYER
  5
90
100
AcDbSymbolTableRecord
100
AcDbLayerTableRecord
  2
103
 70
     0
 62
     3
  6
Continuous
290
     1
370
    -3
390
1F
  0
LAYER
  5
91
100
AcDbSymbolTableRecord
100
AcDbLayerTableRecord
  2
104
 70
     0
 62
     6
  6
Continuous
290
     1
370
    -3
390
1F
  0
LAYER
  5
92
100
AcDbSymbolTableRecord
100
AcDbLayerTableRecord
  2
105
 70
     0
 62
     2
  6
Continuous
290
     1
370
    -3
390
1F
  0
LAYER
  5
93
100
AcDbSymbolTableRecord
100
AcDbLayerTableRecord
  2
106
 70
     0
 62
     7
  6
Continuous
290
     1
370
    -3
390
1F
  0
LAYER
  5
94
100
AcDbSymbolTableRecord
100
AcDbLayerTableRecord
  2
107
 70
     0
 62
     4
  6
Continuous
290
     1
370
    -3
390
1F
  0
LAYER
  5
95
100
AcDbSymbolTableRecord
100
AcDbLayerTableRecord
  2
108
 70
     0
 62
     3
  6
Continuous
290
     1
370
    -3
390
1F
  0
LAYER
  5
96
100
AcDbSymbolTableRecord
100
AcDbLayerTableRecord
  2
109
 70
     0
 62
     6
  6
Continuous
290
     1
370
    -3
390
1F
  0
LAYER
  5
97
100
AcDbSymbolTableRecord
100
AcDbLayerTableRecord
  2
110
 70
     0
 62
     2
  6
Continuous
290
     1
370
    -3
390
1F
  0
LAYER
  5
98
100
AcDbSymbolTableRecord
100
AcDbLayerTableRecord
  2
111
 70
     0
 62
     7
  6
Continuous
290
     1
370
    -3
390
1F
  0
LAYER
  5
99
100
AcDbSymbolTableRecord
100
AcDbLayerTableRecord
  2
112
 70
     0
 62
     4
  6
Continuous
290
     1
370
    -3
390
1F
  0
LAYER
  5
9A
100
AcDbSymbolTableRecord
100
AcDbLayerTableRecord
  2
113
 70
     0
 62
     3
  6
Continuous
290
     1
370
    -3
390
1F
  0
LAYER
  5
9B
100
AcDbSymbolTableRecord
100
AcDbLayerTableRecord
  2
114
 70
     0
 62
     6
  6
Continuous
290
     1
370
    -3
390
1F
  0
LAYER
  5
9C
100
AcDbSymbolTableRecord
100
AcDbLayerTableRecord
  2
115
 70
     0
 62
     2
  6
Continuous
290
     1
370
    -3
390
1F
  0
LAYER
  5
9D
100
AcDbSymbolTableRecord
100
AcDbLayerTableRecord
  2
116
 70
     0
 62
     7
  6
Continuous
290
     1
370
    -3
390
1F
  0
LAYER
  5
9E
100
AcDbSymbolTableRecord
100
AcDbLayerTableRecord
  2
117
 70
     0
 62
     4
  6
Continuous
290
     1
370
    -3
390
1F
  0
LAYER
  5
9F
100
AcDbSymbolTableRecord
100
AcDbLayerTableRecord
  2
118
 70
     0
 62
     3
  6
Continuous
290
     1
370
    -3
390
1F
  0
LAYER
  5
A0
100
AcDbSymbolTableRecord
100
AcDbLayerTableRecord
  2
119
 70
     0
 62
     6
  6
Continuous
290
     1
370
    -3
390
1F
  0
LAYER
  5
A1
100
AcDbSymbolTableRecord
100
AcDbLayerTableRecord
  2
120
 70
     0
 62
     2
  6
Continuous
290
     1
370
    -3
390
1F
  0
LAYER
  5
A2
100
AcDbSymbolTableRecord
100
AcDbLayerTableRecord
  2
121
 70
     0
 62
     7
  6
Continuous
290
     1
370
    -3
390
1F
  0
LAYER
  5
A3
100
AcDbSymbolTableRecord
100
AcDbLayerTableRecord
  2
122
 70
     0
 62
     4
  6
Continuous
290
     1
370
    -3
390
1F
  0
LAYER
  5
A4
100
AcDbSymbolTableRecord
100
AcDbLayerTableRecord
  2
123
 70
     0
 62
     3
  6
Continuous
290
     1
370
    -3
390
1F
  0
LAYER
  5
A5
100
AcDbSymbolTableRecord
100
AcDbLayerTableRecord
  2
124
 70
     0
 62
     6
  6
Continuous
290
     1
370
    -3
390
1F
  0
LAYER
  5
A6
100
AcDbSymbolTableRecord
100
AcDbLayerTableRecord
  2
125
 70
     0
 62
     2
  6
Continuous
290
     1
370
    -3
390
1F
  0
LAYER
  5
A7
100
AcDbSymbolTableRecord
100
AcDbLayerTableRecord
  2
126
 70
     0
 62
     7
  6
Continuous
290
     1
370
    -3
390
1F
  0
LAYER
  5
A8
100
AcDbSymbolTableRecord
100
AcDbLayerTableRecord
  2
127
 70
     0
 62
     7
  6
Continuous
290
     1
370
    -3
390
1F
  0
LAYER
  5
A9
100
AcDbSymbolTableRecord
100
AcDbLayerTableRecord
  2
128
 70
     0
 62
     7
  6
Continuous
290
     1
370
    -3
390
1F
  0
LAYER
  5
AA
100
AcDbSymbolTableRecord
100
AcDbLayerTableRecord
  2
129
 70
     0
 62
     7
  6
Continuous
290
     1
370
    -3
390
1F
  0
ENDTAB
  0
TABLE
  2
STYLE
  5
3
100
AcDbSymbolTable
 70
     1
  0
STYLE
  5
17
100
AcDbSymbolTableRecord
100
AcDbTextStyleTableRecord
  2
Standard
 70
     0
 40
0.0
 41
1.0
 50
0.0
 71
     0
 42
0.0
  3
txt
  4
bigfont
  0
ENDTAB
  0
TABLE
  2
VIEW
  5
5
100
AcDbSymbolTable
 70
     0
  0
ENDTAB
  0
TABLE
  2
UCS
  5
6
100
AcDbSymbolTable
 70
     0
  0
ENDTAB
  0
TABLE
  2
APPID
  5
8
100
AcDbSymbolTable
 70
     1
  0
APPID
  5
16
100
AcDbSymbolTableRecord
100
AcDbRegAppTableRecord
  2
ACAD
 70
     0
  0
ENDTAB
  0
TABLE
  2
DIMSTYLE
  5
9
100
AcDbSymbolTable
 70
     1
100
AcDbDimStyleTable
 71
     0
  0
DIMSTYLE
105
18
100
AcDbSymbolTableRecord
100
AcDbDimStyleTableRecord
  2
Standard
 70
     0
  3

  4

 40
1.0
 41
0.18
 42
0.0625
 43
0.38
 44
0.18
 45
0.0
 46
0.0
 47
0.0
 48
0.0
 71
     0
 72
     0
 73
     1
 74
     1
 75
     0
 76
     0
 77
     0
 78
     0
 79
     0
140
0.18
141
0.09
142
0.0
143
25.4
144
1.0
145
0.0
146
1.0
147
0.09
148
0.0
170
     0
171
     2
172
     0
173
     0
174
     0
175
     0
176
     0
177
     0
178
     0
179
     0
271
     4
272
     4
273
     2
274
     2
275
     0
276
     0
277
     2
278
    46
279
     0
280
     0
281
     0
282
     0
283
     1
284
     0
285
     0
286
     0
288
     0
340
17
341
0
342
0
343
0
344
0
371
    -2
372
    -2
  0
ENDTAB
  0
TABLE
  2
BLOCK_RECORD
  5
1
100
AcDbSymbolTable
 70
     0
  0
BLOCK_RECORD
  5
A
100
AcDbSymbolTableRecord
100
AcDbBlockTableRecord
  2
*MODEL_SPACE
340
20
  0
BLOCK_RECORD
  5
B
100
AcDbSymbolTableRecord
100
AcDbBlockTableRecord
  2
*PAPER_SPACE
340
21
  0
ENDTAB
  0
ENDSEC
  0
SECTION
  2
BLOCKS
  0
BLOCK
  5
D
100
AcDbEntity
  8
0
100
AcDbBlockBegin
  2
*MODEL_SPACE
 70
     0
 10
0.0
 20
0.0
 30
0.0
  3
*MODEL_SPACE
  1

  0
ENDBLK
  5
E
100
AcDbEntity
  8
0
100
AcDbBlockEnd
  0
BLOCK
  5
F
100
AcDbEntity
 67
     1
  8
0
100
AcDbBlockBegin
  2
*PAPER_SPACE
 70
     0
 10
0.0
 20
0.0
 30
0.0
  3
*PAPER_SPACE
  1

  0
ENDBLK
  5
10
100
AcDbEntity
 67
     1
  8
0
100
AcDbBlockEnd
  0
ENDSEC
  0
SECTION
  2
ENTITIES
  0
LINE
  5
AB
100
AcDbEntity
  8
1
  6
Continuous
 62
     7
100
AcDbLine
 10
231.601828
 20
529.118752
 30
0.0
 11
231.501825
 21
529.118752
 31
0.0
  0
LINE
  5
AC
100
AcDbEntity
  8
1
  6
CENTER
 62
     7
100
AcDbLine
 10
287.500007
 20
203.557935
 30
0.0
 11
287.500007
 21
203.657938
 31
0.0
  0
LINE
  5
AD
100
AcDbEntity
  8
1
  6
Continuous
 62
     7
100
AcDbLine
 10
287.500007
 20
448.157945
 30
0.0
 11
127.5
 21
448.157945
 31
0.0
  0
LINE
  5
AE
100
AcDbEntity
  8
1
  6
Continuous
 62
     7
100
AcDbLine
 10
127.5
 20
448.157945
 30
0.0
 11
127.5
 21
468.157943
 31
0.0
  0
LINE
  5
AF
100
AcDbEntity
  8
1
  6
Continuous
 62
     7
100
AcDbLine
 10
127.5
 20
468.157943
 30
0.0
 11
287.500007
 21
468.157943
 31
0.0
  0
LINE
  5
B0
100
AcDbEntity
  8
1
  6
Continuous
 62
     7
100
AcDbLine
 10
159.000003
 20
468.157943
 30
0.0
 11
159.000003
 21
473.357943
 31
0.0
  0
LINE
  5
B1
100
AcDbEntity
  8
1
  6
Continuous
 62
     7
100
AcDbLine
 10
159.000003
 20
473.357943
 30
0.0
 11
287.500007
 21
473.357943
 31
0.0
  0
LINE
  5
B2
100
AcDbEntity
  8
1
  6
Continuous
 62
     7
100
AcDbLine
 10
159.000003
 20
470.357942
 30
0.0
 11
287.500007
 21
470.357942
 31
0.0
  0
LINE
  5
B3
100
AcDbEntity
  8
1
  6
Continuous
 62
     7
100
AcDbLine
 10
159.000003
 20
469.557941
 30
0.0
 11
287.500007
 21
469.557941
 31
0.0
  0
LINE
  5
B4
100
AcDbEntity
  8
1
  6
CENTER
 62
     7
100
AcDbLine
 10
147.499998
 20
480.957943
 30
0.0
 11
147.499998
 21
432.157944
 31
0.0
  0
ARC
  5
B5
100
AcDbEntity
  8
1
  6
Continuous
 62
     7
100
AcDbCircle
 10
170.500008
 20
432.157944
 30
0.0
 40
4.500001
100
AcDbArc
 50
147.70852
 51
-144.911644
  0
LINE
  5
B6
100
AcDbEntity
  8
1
  6
Continuous
 62
     7
100
AcDbLine
 10
173.700004
 20
419.157939
 30
0.0
 11
287.500007
 21
419.157939
 31
0.0
  0
LINE
  5
B7
100
AcDbEntity
  8
1
  6
Continuous
 62
     7
100
AcDbLine
 10
173.700004
 20
413.157943
 30
0.0
 11
287.500007
 21
413.157943
 31
0.0
  0
ARC
  5
B8
100
AcDbEntity
  8
1
  6
Continuous
 62
     7
100
AcDbCircle
 10
173.700004
 20
416.157944
 30
0.0
 40
3.000001
100
AcDbArc
 50
90.01167
 51
-90.022287
  0
LINE
  5
B9
100
AcDbEntity
  8
1
  6
Continuous
 62
     7
100
AcDbLine
 10
175.200004
 20
419.157939
 30
0.0
 11
166.900001
 21
429.657942
 31
0.0
  0
LINE
  5
BA
100
AcDbEntity
  8
1
  6
Continuous
 62
     7
100
AcDbLine
 10
166.900001
 20
402.65794
 30
0.0
 11
175.200004
 21
413.157943
 31
0.0
  0
LINE
  5
BB
100
AcDbEntity
  8
1
  6
Continuous
 62
     7
100
AcDbLine
 10
170.700003
 20
432.157944
 30
0.0
 11
287.500007
 21
432.157944
 31
0.0
  0
LINE
  5
BC
100
AcDbEntity
  8
1
  6
CENTER
 62
     7
100
AcDbLine
 10
167.500002
 20
416.157944
 30
0.0
 11
287.500007
 21
416.157944
 31
0.0
  0
ARC
  5
BD
100
AcDbEntity
  8
1
  6
Continuous
 62
     7
100
AcDbCircle
 10
170.500008
 20
400.157937
 30
0.0
 40
4.500001
100
AcDbArc
 50
147.70852
 51
-144.911644
  0
LINE
  5
BE
100
AcDbEntity
  8
1
  6
Continuous
 62
     7
100
AcDbLine
 10
175.200004
 20
387.157943
 30
0.0
 11
166.900001
 21
397.65794
 31
0.0
  0
LINE
  5
BF
100
AcDbEntity
  8
1
  6
Continuous
 62
     7
100
AcDbLine
 10
170.700003
 20
400.157937
 30
0.0
 11
287.500007
 21
400.157937
 31
0.0
  0
LINE
  5
C0
100
AcDbEntity
  8
1
  6
Continuous
 62
     7
100
AcDbLine
 10
166.900001
 20
402.65794
 30
0.0
 11
175.200004
 21
413.157943
 31
0.0
  0
LINE
  5
C1
100
AcDbEntity
  8
1
  6
CENTER
 62
     7
100
AcDbLine
 10
147.499998
 20
435.857944
 30
0.0
 11
147.499998
 21
480.957943
 31
0.0
  0
LINE
  5
C2
100
AcDbEntity
  8
1
  6
Continuous
 62
     7
100
AcDbLine
 10
287.500007
 20
448.157945
 30
0.0
 11
447.500014
 21
448.157945
 31
0.0
  0
LINE
  5
C3
100
AcDbEntity
  8
1
  6
Continuous
 62
     7
100
AcDbLine
 10
447.500014
 20
448.157945
 30
0.0
 11
447.500014
 21
468.157943
 31
0.0
  0
LINE
  5
C4
100
AcDbEntity
  8
1
  6
Continuous
 62
     7
100
AcDbLine
 10
447.500014
 20
468.157943
 30
0.0
 11
287.500007
 21
468.157943
 31
0.0
  0
LINE
  5
C5
100
AcDbEntity
  8
1
  6
Continuous
 62
     7
100
AcDbLine
 10
416.000011
 20
468.157943
 30
0.0
 11
416.000011
 21
473.357943
 31
0.0
  0
LINE
  5
C6
100
AcDbEntity
  8
1
  6
Continuous
 62
     7
100
AcDbLine
 10
416.000011
 20
473.357943
 30
0.0
 11
287.500007
 21
473.357943
 31
0.0
  0
LINE
  5
C7
100
AcDbEntity
  8
1
  6
Continuous
 62
     7
100
AcDbLine
 10
416.000011
 20
470.357942
 30
0.0
 11
287.500007
 21
470.357942
 31
0.0
  0
LINE
  5
C8
100
AcDbEntity
  8
1
  6
Continuous
 62
     7
100
AcDbLine
 10
416.000011
 20
469.557941
 30
0.0
 11
287.500007
 21
469.557941
 31
0.0
  0
ARC
  5
C9
100
AcDbEntity
  8
1
  6
Continuous
 62
     7
100
AcDbCircle
 10
404.500006
 20
432.157944
 30
0.0
 40
4.500001
100
AcDbArc
 50
-35.088356
 51
32.29148
  0
LINE
  5
CA
100
AcDbEntity
  8
1
  6
Continuous
 62
     7
100
AcDbLine
 10
401.300011
 20
419.157939
 30
0.0
 11
287.500007
 21
419.157939
 31
0.0
  0
LINE
  5
CB
100
AcDbEntity
  8
1
  6
Continuous
 62
     7
100
AcDbLine
 10
401.300011
 20
413.157943
 30
0.0
 11
287.500007
 21
413.157943
 31
0.0
  0
ARC
  5
CC
100
AcDbEntity
  8
1
  6
Continuous
 62
     7
100
AcDbCircle
 10
401.300011
 20
416.157944
 30
0.0
 40
3.000001
100
AcDbArc
 50
-89.977713
 51
89.98833
  0
LINE
  5
CD
100
AcDbEntity
  8
1
  6
Continuous
 62
     7
100
AcDbLine
 10
399.80001
 20
419.157939
 30
0.0
 11
408.100014
 21
429.657942
 31
0.0
  0
LINE
  5
CE
100
AcDbEntity
  8
1
  6
Continuous
 62
     7
100
AcDbLine
 10
408.100014
 20
402.65794
 30
0.0
 11
399.80001
 21
413.157943
 31
0.0
  0
LINE
  5
CF
100
AcDbEntity
  8
1
  6
Continuous
 62
     7
100
AcDbLine
 10
404.300011
 20
432.157944
 30
0.0
 11
287.500007
 21
432.157944
 31
0.0
  0
LINE
  5
D0
100
AcDbEntity
  8
1
  6
CENTER
 62
     7
100
AcDbLine
 10
407.500013
 20
416.157944
 30
0.0
 11
287.500007
 21
416.157944
 31
0.0
  0
ARC
  5
D1
100
AcDbEntity
  8
1
  6
Continuous
 62
     7
100
AcDbCircle
 10
404.500006
 20
400.157937
 30
0.0
 40
4.500001
100
AcDbArc
 50
-35.088356
 51
32.29148
  0
LINE
  5
D2
100
AcDbEntity
  8
1
  6
Continuous
 62
     7
100
AcDbLine
 10
399.80001
 20
387.157943
 30
0.0
 11
408.100014
 21
397.65794
 31
0.0
  0
LINE
  5
D3
100
AcDbEntity
  8
1
  6
Continuous
 62
     7
100
AcDbLine
 10
404.300011
 20
400.157937
 30
0.0
 11
287.500007
 21
400.157937
 31
0.0
  0
LINE
  5
D4
100
AcDbEntity
  8
1
  6
Continuous
 62
     7
100
AcDbLine
 10
408.100014
 20
402.65794
 30
0.0
 11
399.80001
 21
413.157943
 31
0.0
  0
LINE
  5
D5
100
AcDbEntity
  8
1
  6
Continuous
 62
     7
100
AcDbLine
 10
397.452124
 20
448.157945
 30
0.0
 11
408.100014
 21
434.657941
 31
0.0
  0
LINE
  5
D6
100
AcDbEntity
  8
1
  6
Continuous
 62
     7
100
AcDbLine
 10
177.54789
 20
448.157945
 30
0.0
 11
166.900001
 21
434.657941
 31
0.0
  0
LINE
  5
D7
100
AcDbEntity
  8
1
  6
CENTER
 62
     7
100
AcDbLine
 10
427.500016
 20
480.957943
 30
0.0
 11
427.500016
 21
432.157944
 31
0.0
  0
LINE
  5
D8
100
AcDbEntity
  8
1
  6
CENTER
 62
     7
100
AcDbLine
 10
427.500016
 20
435.857944
 30
0.0
 11
427.500016
 21
480.957943
 31
0.0
  0
LINE
  5
D9
100
AcDbEntity
  8
1
  6
Continuous
 62
     7
100
AcDbLine
 10
287.500007
 20
324.957939
 30
0.0
 11
127.5
 21
324.957939
 31
0.0
  0
LINE
  5
DA
100
AcDbEntity
  8
1
  6
Continuous
 62
     7
100
AcDbLine
 10
127.5
 20
324.957939
 30
0.0
 11
127.5
 21
304.957935
 31
0.0
  0
LINE
  5
DB
100
AcDbEntity
  8
1
  6
Continuous
 62
     7
100
AcDbLine
 10
127.5
 20
304.957935
 30
0.0
 11
287.500007
 21
304.957935
 31
0.0
  0
LINE
  5
DC
100
AcDbEntity
  8
1
  6
CENTER
 62
     7
100
AcDbLine
 10
147.499998
 20
292.157936
 30
0.0
 11
147.499998
 21
340.95794
 31
0.0
  0
LINE
  5
DD
100
AcDbEntity
  8
1
  6
CENTER
 62
     7
100
AcDbLine
 10
147.499998
 20
292.157936
 30
0.0
 11
147.499998
 21
340.95794
 31
0.0
  0
LINE
  5
DE
100
AcDbEntity
  8
1
  6
Continuous
 62
     7
100
AcDbLine
 10
178.100002
 20
324.25794
 30
0.0
 11
166.900001
 21
338.457937
 31
0.0
  0
ARC
  5
DF
100
AcDbEntity
  8
1
  6
Continuous
 62
     7
100
AcDbCircle
 10
170.500008
 20
340.95794
 30
0.0
 40
4.500001
100
AcDbArc
 50
144.901026
 51
-147.719137
  0
LINE
  5
E0
100
AcDbEntity
  8
1
  6
Continuous
 62
     7
100
AcDbLine
 10
173.700004
 20
353.95794
 30
0.0
 11
287.500007
 21
353.95794
 31
0.0
  0
LINE
  5
E1
100
AcDbEntity
  8
1
  6
Continuous
 62
     7
100
AcDbLine
 10
173.700004
 20
359.957941
 30
0.0
 11
287.500007
 21
359.957941
 31
0.0
  0
ARC
  5
E2
100
AcDbEntity
  8
1
  6
Continuous
 62
     7
100
AcDbCircle
 10
173.700004
 20
356.957941
 30
0.0
 40
3.000001
100
AcDbArc
 50
90.01167
 51
-90.022287
  0
LINE
  5
E3
100
AcDbEntity
  8
1
  6
Continuous
 62
     7
100
AcDbLine
 10
175.200004
 20
353.95794
 30
0.0
 11
166.900001
 21
343.457937
 31
0.0
  0
LINE
  5
E4
100
AcDbEntity
  8
1
  6
Continuous
 62
     7
100
AcDbLine
 10
166.900001
 20
370.457939
 30
0.0
 11
175.200004
 21
359.957941
 31
0.0
  0
LINE
  5
E5
100
AcDbEntity
  8
1
  6
Continuous
 62
     7
100
AcDbLine
 10
170.700003
 20
340.95794
 30
0.0
 11
287.500007
 21
340.95794
 31
0.0
  0
LINE
  5
E6
100
AcDbEntity
  8
1
  6
CENTER
 62
     7
100
AcDbLine
 10
167.500002
 20
356.957941
 30
0.0
 11
287.500007
 21
356.957941
 31
0.0
  0
ARC
  5
E7
100
AcDbEntity
  8
1
  6
Continuous
 62
     7
100
AcDbCircle
 10
170.500008
 20
372.957936
 30
0.0
 40
4.500001
100
AcDbArc
 50
144.901026
 51
-147.719137
  0
LINE
  5
E8
100
AcDbEntity
  8
1
  6
Continuous
 62
     7
100
AcDbLine
 10
175.200004
 20
385.957941
 30
0.0
 11
166.900001
 21
375.457938
 31
0.0
  0
LINE
  5
E9
100
AcDbEntity
  8
1
  6
Continuous
 62
     7
100
AcDbLine
 10
170.700003
 20
372.957936
 30
0.0
 11
287.500007
 21
372.957936
 31
0.0
  0
LINE
  5
EA
100
AcDbEntity
  8
1
  6
Continuous
 62
     7
100
AcDbLine
 10
166.900001
 20
370.457939
 30
0.0
 11
175.200004
 21
359.957941
 31
0.0
  0
LINE
  5
EB
100
AcDbEntity
  8
1
  6
Continuous
 62
     7
100
AcDbLine
 10
159.000003
 20
304.957935
 30
0.0
 11
159.000003
 21
298.157943
 31
0.0
  0
LINE
  5
EC
100
AcDbEntity
  8
1
  6
Continuous
 62
     7
100
AcDbLine
 10
159.000003
 20
302.657939
 30
0.0
 11
287.500007
 21
302.657939
 31
0.0
  0
LINE
  5
ED
100
AcDbEntity
  8
1
  6
Continuous
 62
     7
100
AcDbLine
 10
159.000003
 20
301.157938
 30
0.0
 11
287.500007
 21
301.157938
 31
0.0
  0
LINE
  5
EE
100
AcDbEntity
  8
1
  6
Continuous
 62
     7
100
AcDbLine
 10
159.000003
 20
298.157943
 30
0.0
 11
287.500007
 21
298.157943
 31
0.0
  0
ARC
  5
EF
100
AcDbEntity
  8
1
  6
Continuous
 62
     7
100
AcDbCircle
 10
191.100008
 20
262.757934
 30
0.0
 40
1.000002
100
AcDbArc
 50
-84.292709
 51
-0.010617
  0
LINE
  5
F0
100
AcDbEntity
  8
1
  6
Continuous
 62
     7
100
AcDbLine
 10
192.000007
 20
266.057939
 30
0.0
 11
192.100004
 21
262.757934
 31
0.0
  0
LINE
  5
F1
100
AcDbEntity
  8
1
  6
Continuous
 62
     7
100
AcDbLine
 10
191.500003
 20
261.65794
 30
0.0
 11
287.500007
 21
261.65794
 31
0.0
  0
LINE
  5
F2
100
AcDbEntity
  8
1
  6
Continuous
 62
     7
100
AcDbLine
 10
191.500003
 20
257.35794
 30
0.0
 11
287.500007
 21
257.35794
 31
0.0
  0
LINE
  5
F3
100
AcDbEntity
  8
1
  6
Continuous
 62
     7
100
AcDbLine
 10
192.000007
 20
266.057939
 30
0.0
 11
287.500007
 21
266.057939
 31
0.0
  0
ARC
  5
F4
100
AcDbEntity
  8
1
  6
Continuous
 62
     7
100
AcDbCircle
 10
191.500003
 20
259.557939
 30
0.0
 40
2.199999
100
AcDbArc
 50
97.7466
 51
-90.022287
  0
LINE
  5
F5
100
AcDbEntity
  8
1
  6
Continuous
 62
     7
100
AcDbLine
 10
191.500003
 20
259.557939
 30
0.0
 11
287.500007
 21
259.557939
 31
0.0
  0
LINE
  5
F6
100
AcDbEntity
  8
1
  6
Continuous
 62
     7
100
AcDbLine
 10
192.826449
 20
266.057939
 30
0.0
 11
191.500003
 21
298.157943
 31
0.0
  0
LINE
  5
F7
100
AcDbEntity
  8
1
  6
Continuous
 62
     7
100
AcDbLine
 10
287.500007
 20
324.957939
 30
0.0
 11
447.500014
 21
324.957939
 31
0.0
  0
LINE
  5
F8
100
AcDbEntity
  8
1
  6
Continuous
 62
     7
100
AcDbLine
 10
447.500014
 20
324.957939
 30
0.0
 11
447.500014
 21
304.957935
 31
0.0
  0
LINE
  5
F9
100
AcDbEntity
  8
1
  6
Continuous
 62
     7
100
AcDbLine
 10
447.500014
 20
304.957935
 30
0.0
 11
287.500007
 21
304.957935
 31
0.0
  0
LINE
  5
FA
100
AcDbEntity
  8
1
  6
CENTER
 62
     7
100
AcDbLine
 10
427.500016
 20
292.157936
 30
0.0
 11
427.500016
 21
340.95794
 31
0.0
  0
LINE
  5
FB
100
AcDbEntity
  8
1
  6
CENTER
 62
     7
100
AcDbLine
 10
427.500016
 20
292.157936
 30
0.0
 11
427.500016
 21
340.95794
 31
0.0
  0
LINE
  5
FC
100
AcDbEntity
  8
1
  6
Continuous
 62
     7
100
AcDbLine
 10
396.900012
 20
324.25794
 30
0.0
 11
408.100014
 21
338.457937
 31
0.0
  0
ARC
  5
FD
100
AcDbEntity
  8
1
  6
Continuous
 62
     7
100
AcDbCircle
 10
404.500006
 20
340.95794
 30
0.0
 40
4.500001
100
AcDbArc
 50
-32.280863
 51
35.098974
  0
LINE
  5
FE
100
AcDbEntity
  8
1
  6
Continuous
 62
     7
100
AcDbLine
 10
401.300011
 20
353.95794
 30
0.0
 11
287.500007
 21
353.95794
 31
0.0
  0
LINE
  5
FF
100
AcDbEntity
  8
1
  6
Continuous
 62
     7
100
AcDbLine
 10
401.300011
 20
359.957941
 30
0.0
 11
287.500007
 21
359.957941
 31
0.0
  0
ARC
  5
100
100
AcDbEntity
  8
1
  6
Continuous
 62
     7
100
AcDbCircle
 10
401.300011
 20
356.957941
 30
0.0
 40
3.000001
100
AcDbArc
 50
-89.977713
 51
89.98833
  0
LINE
  5
101
100
AcDbEntity
  8
1
  6
Continuous
 62
     7
100
AcDbLine
 10
399.80001
 20
353.95794
 30
0.0
 11
408.100014
 21
343.457937
 31
0.0
  0
LINE
  5
102
100
AcDbEntity
  8
1
  6
Continuous
 62
     7
100
AcDbLine
 10
408.100014
 20
370.457939
 30
0.0
 11
399.80001
 21
359.957941
 31
0.0
  0
LINE
  5
103
100
AcDbEntity
  8
1
  6
Continuous
 62
     7
100
AcDbLine
 10
404.300011
 20
340.95794
 30
0.0
 11
287.500007
 21
340.95794
 31
0.0
  0
LINE
  5
104
100
AcDbEntity
  8
1
  6
CENTER
 62
     7
100
AcDbLine
 10
407.500013
 20
356.957941
 30
0.0
 11
287.500007
 21
356.957941
 31
0.0
  0
ARC
  5
105
100
AcDbEntity
  8
1
  6
Continuous
 62
     7
100
AcDbCircle
 10
404.500006
 20
372.957936
 30
0.0
 40
4.500001
100
AcDbArc
 50
-32.280863
 51
35.098974
  0
LINE
  5
106
100
AcDbEntity
  8
1
  6
Continuous
 62
     7
100
AcDbLine
 10
399.80001
 20
385.957941
 30
0.0
 11
408.100014
 21
375.457938
 31
0.0
  0
LINE
  5
107
100
AcDbEntity
  8
1
  6
Continuous
 62
     7
100
AcDbLine
 10
404.300011
 20
372.957936
 30
0.0
 11
287.500007
 21
372.957936
 31
0.0
  0
LINE
  5
108
100
AcDbEntity
  8
1
  6
Continuous
 62
     7
100
AcDbLine
 10
408.100014
 20
370.457939
 30
0.0
 11
399.80001
 21
359.957941
 31
0.0
  0
LINE
  5
109
100
AcDbEntity
  8
1
  6
Continuous
 62
     7
100
AcDbLine
 10
416.000011
 20
304.957935
 30
0.0
 11
416.000011
 21
298.157943
 31
0.0
  0
LINE
  5
10A
100
AcDbEntity
  8
1
  6
Continuous
 62
     7
100
AcDbLine
 10
416.000011
 20
302.657939
 30
0.0
 11
287.500007
 21
302.657939
 31
0.0
  0
LINE
  5
10B
100
AcDbEntity
  8
1
  6
Continuous
 62
     7
100
AcDbLine
 10
416.000011
 20
301.157938
 30
0.0
 11
287.500007
 21
301.157938
 31
0.0
  0
LINE
  5
10C
100
AcDbEntity
  8
1
  6
Continuous
 62
     7
100
AcDbLine
 10
416.000011
 20
298.157943
 30
0.0
 11
287.500007
 21
298.157943
 31
0.0
  0
ARC
  5
10D
100
AcDbEntity
  8
1
  6
Continuous
 62
     7
100
AcDbCircle
 10
383.900007
 20
262.757934
 30
0.0
 40
1.000002
100
AcDbArc
 50
-179.989383
 51
-95.707291
  0
LINE
  5
10E
100
AcDbEntity
  8
1
  6
Continuous
 62
     7
100
AcDbLine
 10
383.000008
 20
266.057939
 30
0.0
 11
382.90001
 21
262.757934
 31
0.0
  0
LINE
  5
10F
100
AcDbEntity
  8
1
  6
Continuous
 62
     7
100
AcDbLine
 10
383.500012
 20
261.65794
 30
0.0
 11
287.500007
 21
261.65794
 31
0.0
  0
LINE
  5
110
100
AcDbEntity
  8
1
  6
Continuous
 62
     7
100
AcDbLine
 10
383.500012
 20
257.35794
 30
0.0
 11
287.500007
 21
257.35794
 31
0.0
  0
LINE
  5
111
100
AcDbEntity
  8
1
  6
Continuous
 62
     7
100
AcDbLine
 10
383.000008
 20
266.057939
 30
0.0
 11
287.500007
 21
266.057939
 31
0.0
  0
ARC
  5
112
100
AcDbEntity
  8
1
  6
Continuous
 62
     7
100
AcDbCircle
 10
383.500012
 20
259.557939
 30
0.0
 40
2.199999
100
AcDbArc
 50
-89.977713
 51
82.2534
  0
LINE
  5
113
100
AcDbEntity
  8
1
  6
Continuous
 62
     7
100
AcDbLine
 10
383.500012
 20
259.557939
 30
0.0
 11
287.500007
 21
259.557939
 31
0.0
  0
LINE
  5
114
100
AcDbEntity
  8
1
  6
Continuous
 62
     7
100
AcDbLine
 10
382.173565
 20
266.057939
 30
0.0
 11
383.500012
 21
298.157943
 31
0.0
  0
LINE
  5
115
100
AcDbEntity
  8
1
  6
CENTER
 62
     7
100
AcDbLine
 10
409.000008
 20
373.057939
 30
0.0
 11
409.000008
 21
400.157937
 31
0.0
  0
LINE
  5
116
100
AcDbEntity
  8
1
  6
CENTER
 62
     7
100
AcDbLine
 10
166.000007
 20
373.057939
 30
0.0
 11
166.000007
 21
401.297627
 31
0.0
  0
LINE
  5
117
100
AcDbEntity
  8
1
  6
CENTER
 62
     7
100
AcDbLine
 10
287.500007
 20
489.547943
 30
0.0
 11
287.500007
 21
241.163004
 31
0.0
  0
CIRCLE
  5
118
100
AcDbEntity
  8
1
  6
Continuous
 62
     7
100
AcDbCircle
 10
287.500007
 20
826.596801
 30
0.0
 40
160.0
  0
CIRCLE
  5
119
100
AcDbEntity
  8
1
  6
Continuous
 62
     7
100
AcDbCircle
 10
287.500007
 20
826.596801
 30
0.0
 40
128.5
  0
CIRCLE
  5
11A
100
AcDbEntity
  8
1
  6
Continuous
 62
     7
100
AcDbCircle
 10
287.500007
 20
826.596801
 30
0.0
 40
107.5
  0
CIRCLE
  5
11B
100
AcDbEntity
  8
1
  6
HIDDEN
 62
     7
100
AcDbCircle
 10
287.500007
 20
826.596801
 30
0.0
 40
110.5
  0
LINE
  5
11C
100
AcDbEntity
  8
1
  6
CENTER
 62
     7
100
AcDbLine
 10
287.500007
 20
999.18343
 30
0.0
 11
287.500007
 21
647.35794
 31
0.0
  0
LINE
  5
11D
100
AcDbEntity
  8
1
  6
CENTER
 62
     7
100
AcDbLine
 10
106.001887
 20
826.596801
 30
0.0
 11
471.348421
 21
826.596801
 31
0.0
  0
CIRCLE
  5
11E
100
AcDbEntity
  8
1
  6
PHANTOM
 62
     7
100
AcDbCircle
 10
287.500007
 20
826.596801
 30
0.0
 40
140.0
  0
CIRCLE
  5
11F
100
AcDbEntity
  8
1
  6
Continuous
 62
     7
100
AcDbCircle
 10
287.500007
 20
966.596801
 30
0.0
 40
11.5
  0
CIRCLE
  5
120
100
AcDbEntity
  8
1
  6
Continuous
 62
     7
100
AcDbCircle
 10
188.505058
 20
925.59175
 30
0.0
 40
11.5
  0
CIRCLE
  5
121
100
AcDbEntity
  8
1
  6
Continuous
 62
     7
100
AcDbCircle
 10
147.500007
 20
826.596801
 30
0.0
 40
11.5
  0
CIRCLE
  5
122
100
AcDbEntity
  8
1
  6
Continuous
 62
     7
100
AcDbCircle
 10
188.505058
 20
727.601852
 30
0.0
 40
11.5
  0
CIRCLE
  5
123
100
AcDbEntity
  8
1
  6
Continuous
 62
     7
100
AcDbCircle
 10
287.500007
 20
686.596801
 30
0.0
 40
11.5
  0
CIRCLE
  5
124
100
AcDbEntity
  8
1
  6
Continuous
 62
     7
100
AcDbCircle
 10
386.494957
 20
727.601851
 30
0.0
 40
11.5
  0
CIRCLE
  5
125
100
AcDbEntity
  8
1
  6
Continuous
 62
     7
100
AcDbCircle
 10
427.500007
 20
826.596801
 30
0.0
 40
11.5
  0
CIRCLE
  5
126
100
AcDbEntity
  8
1
  6
Continuous
 62
     7
100
AcDbCircle
 10
386.494957
 20
925.59175
 30
0.0
 40
11.5
  0
LINE
  5
127
100
AcDbEntity
  8
1
  6
CENTER
 62
     7
100
AcDbLine
 10
398.228956
 20
937.325749
 30
0.0
 11
374.048882
 21
913.145676
 31
0.0
  0
LINE
  5
128
100
AcDbEntity
  8
1
  6
CENTER
 62
     7
100
AcDbLine
 10
374.048882
 20
740.047926
 30
0.0
 11
398.228956
 21
715.867852
 31
0.0
  0
LINE
  5
129
100
AcDbEntity
  8
1
  6
CENTER
 62
     7
100
AcDbLine
 10
176.771059
 20
715.867852
 30
0.0
 11
200.951133
 21
740.047926
 31
0.0
  0
LINE
  5
12A
100
AcDbEntity
  8
1
  6
CENTER
 62
     7
100
AcDbLine
 10
176.771059
 20
937.32575
 30
0.0
 11
200.951133
 21
913.145676
 31
0.0
  0
LINE
  5
12B
100
AcDbEntity
  8
1
  6
Continuous
 62
     7
100
AcDbLine
 10
551.100016
 20
703.118748
 30
0.0
 11
551.000013
 21
703.118748
 31
0.0
  0
LINE
  5
12C
100
AcDbEntity
  8
1
  6
CENTER
 62
     7
100
AcDbLine
 10
735.000022
 20
228.357936
 30
0.0
 11
735.000022
 21
228.457938
 31
0.0
  0
LINE
  5
12D
100
AcDbEntity
  8
1
  6
Continuous
 62
     7
100
AcDbLine
 10
735.000022
 20
472.957945
 30
0.0
 11
575.000014
 21
472.957945
 31
0.0
  0
LINE
  5
12E
100
AcDbEntity
  8
1
  6
Continuous
 62
     7
100
AcDbLine
 10
575.000014
 20
472.957945
 30
0.0
 11
575.000014
 21
492.957943
 31
0.0
  0
LINE
  5
12F
100
AcDbEntity
  8
1
  6
Continuous
 62
     7
100
AcDbLine
 10
575.000014
 20
492.957943
 30
0.0
 11
735.000022
 21
492.957943
 31
0.0
  0
LINE
  5
130
100
AcDbEntity
  8
1
  6
Continuous
 62
     7
100
AcDbLine
 10
606.500018
 20
492.957943
 30
0.0
 11
606.500018
 21
498.157943
 31
0.0
  0
LINE
  5
131
100
AcDbEntity
  8
1
  6
Continuous
 62
     7
100
AcDbLine
 10
606.500018
 20
498.157943
 30
0.0
 11
735.000022
 21
498.157943
 31
0.0
  0
LINE
  5
132
100
AcDbEntity
  8
1
  6
Continuous
 62
     7
100
AcDbLine
 10
606.500018
 20
495.157942
 30
0.0
 11
735.000022
 21
495.157942
 31
0.0
  0
LINE
  5
133
100
AcDbEntity
  8
1
  6
Continuous
 62
     7
100
AcDbLine
 10
606.500018
 20
494.357941
 30
0.0
 11
735.000022
 21
494.357941
 31
0.0
  0
LINE
  5
134
100
AcDbEntity
  8
1
  6
CENTER
 62
     7
100
AcDbLine
 10
595.000013
 20
505.757943
 30
0.0
 11
595.000013
 21
456.957944
 31
0.0
  0
ARC
  5
135
100
AcDbEntity
  8
1
  6
Continuous
 62
     7
100
AcDbCircle
 10
618.000023
 20
456.957944
 30
0.0
 40
4.500001
100
AcDbArc
 50
147.70852
 51
-144.911644
  0
LINE
  5
136
100
AcDbEntity
  8
1
  6
Continuous
 62
     7
100
AcDbLine
 10
621.200018
 20
443.957939
 30
0.0
 11
735.000022
 21
443.957939
 31
0.0
  0
LINE
  5
137
100
AcDbEntity
  8
1
  6
Continuous
 62
     7
100
AcDbLine
 10
621.200018
 20
437.957943
 30
0.0
 11
735.000022
 21
437.957943
 31
0.0
  0
ARC
  5
138
100
AcDbEntity
  8
1
  6
Continuous
 62
     7
100
AcDbCircle
 10
621.200018
 20
440.957944
 30
0.0
 40
3.000001
100
AcDbArc
 50
90.01167
 51
-90.022287
  0
LINE
  5
139
100
AcDbEntity
  8
1
  6
Continuous
 62
     7
100
AcDbLine
 10
622.700019
 20
443.957939
 30
0.0
 11
614.400015
 21
454.457942
 31
0.0
  0
LINE
  5
13A
100
AcDbEntity
  8
1
  6
Continuous
 62
     7
100
AcDbLine
 10
614.400015
 20
427.45794
 30
0.0
 11
622.700019
 21
437.957943
 31
0.0
  0
LINE
  5
13B
100
AcDbEntity
  8
1
  6
Continuous
 62
     7
100
AcDbLine
 10
618.200018
 20
456.957944
 30
0.0
 11
735.000022
 21
456.957944
 31
0.0
  0
LINE
  5
13C
100
AcDbEntity
  8
1
  6
CENTER
 62
     7
100
AcDbLine
 10
615.000016
 20
440.957944
 30
0.0
 11
735.000022
 21
440.957944
 31
0.0
  0
ARC
  5
13D
100
AcDbEntity
  8
1
  6
Continuous
 62
     7
100
AcDbCircle
 10
618.000023
 20
424.957937
 30
0.0
 40
4.500001
100
AcDbArc
 50
147.70852
 51
-144.911644
  0
LINE
  5
13E
100
AcDbEntity
  8
1
  6
Continuous
 62
     7
100
AcDbLine
 10
622.700019
 20
411.957943
 30
0.0
 11
614.400015
 21
422.45794
 31
0.0
  0
LINE
  5
13F
100
AcDbEntity
  8
1
  6
Continuous
 62
     7
100
AcDbLine
 10
618.200018
 20
424.957937
 30
0.0
 11
735.000022
 21
424.957937
 31
0.0
  0
LINE
  5
140
100
AcDbEntity
  8
1
  6
Continuous
 62
     7
100
AcDbLine
 10
614.400015
 20
427.45794
 30
0.0
 11
622.700019
 21
437.957943
 31
0.0
  0
LINE
  5
141
100
AcDbEntity
  8
1
  6
CENTER
 62
     7
100
AcDbLine
 10
595.000013
 20
460.657944
 30
0.0
 11
595.000013
 21
505.757943
 31
0.0
  0
LINE
  5
142
100
AcDbEntity
  8
1
  6
Continuous
 62
     7
100
AcDbLine
 10
735.000022
 20
472.957945
 30
0.0
 11
895.000029
 21
472.957945
 31
0.0
  0
LINE
  5
143
100
AcDbEntity
  8
1
  6
Continuous
 62
     7
100
AcDbLine
 10
895.000029
 20
472.957945
 30
0.0
 11
895.000029
 21
492.957943
 31
0.0
  0
LINE
  5
144
100
AcDbEntity
  8
1
  6
Continuous
 62
     7
100
AcDbLine
 10
895.000029
 20
492.957943
 30
0.0
 11
735.000022
 21
492.957943
 31
0.0
  0
LINE
  5
145
100
AcDbEntity
  8
1
  6
Continuous
 62
     7
100
AcDbLine
 10
863.500026
 20
492.957943
 30
0.0
 11
863.500026
 21
498.157943
 31
0.0
  0
LINE
  5
146
100
AcDbEntity
  8
1
  6
Continuous
 62
     7
100
AcDbLine
 10
863.500026
 20
498.157943
 30
0.0
 11
735.000022
 21
498.157943
 31
0.0
  0
LINE
  5
147
100
AcDbEntity
  8
1
  6
Continuous
 62
     7
100
AcDbLine
 10
863.500026
 20
495.157942
 30
0.0
 11
735.000022
 21
495.157942
 31
0.0
  0
LINE
  5
148
100
AcDbEntity
  8
1
  6
Continuous
 62
     7
100
AcDbLine
 10
863.500026
 20
494.357941
 30
0.0
 11
735.000022
 21
494.357941
 31
0.0
  0
ARC
  5
149
100
AcDbEntity
  8
1
  6
Continuous
 62
     7
100
AcDbCircle
 10
852.000021
 20
456.957944
 30
0.0
 40
4.500001
100
AcDbArc
 50
-35.088356
 51
32.29148
  0
LINE
  5
14A
100
AcDbEntity
  8
1
  6
Continuous
 62
     7
100
AcDbLine
 10
848.800025
 20
443.957939
 30
0.0
 11
735.000022
 21
443.957939
 31
0.0
  0
LINE
  5
14B
100
AcDbEntity
  8
1
  6
Continuous
 62
     7
100
AcDbLine
 10
848.800025
 20
437.957943
 30
0.0
 11
735.000022
 21
437.957943
 31
0.0
  0
ARC
  5
14C
100
AcDbEntity
  8
1
  6
Continuous
 62
     7
100
AcDbCircle
 10
848.800025
 20
440.957944
 30
0.0
 40
3.000001
100
AcDbArc
 50
-89.977713
 51
89.98833
  0
LINE
  5
14D
100
AcDbEntity
  8
1
  6
Continuous
 62
     7
100
AcDbLine
 10
847.300025
 20
443.957939
 30
0.0
 11
855.600028
 21
454.457942
 31
0.0
  0
LINE
  5
14E
100
AcDbEntity
  8
1
  6
Continuous
 62
     7
100
AcDbLine
 10
855.600028
 20
427.45794
 30
0.0
 11
847.300025
 21
437.957943
 31
0.0
  0
LINE
  5
14F
100
AcDbEntity
  8
1
  6
Continuous
 62
     7
100
AcDbLine
 10
851.800026
 20
456.957944
 30
0.0
 11
735.000022
 21
456.957944
 31
0.0
  0
LINE
  5
150
100
AcDbEntity
  8
1
  6
CENTER
 62
     7
100
AcDbLine
 10
855.000027
 20
440.957944
 30
0.0
 11
735.000022
 21
440.957944
 31
0.0
  0
ARC
  5
151
100
AcDbEntity
  8
1
  6
Continuous
 62
     7
100
AcDbCircle
 10
852.000021
 20
424.957937
 30
0.0
 40
4.500001
100
AcDbArc
 50
-35.088356
 51
32.29148
  0
LINE
  5
152
100
AcDbEntity
  8
1
  6
Continuous
 62
     7
100
AcDbLine
 10
847.300025
 20
411.957943
 30
0.0
 11
855.600028
 21
422.45794
 31
0.0
  0
LINE
  5
153
100
AcDbEntity
  8
1
  6
Continuous
 62
     7
100
AcDbLine
 10
851.800026
 20
424.957937
 30
0.0
 11
735.000022
 21
424.957937
 31
0.0
  0
LINE
  5
154
100
AcDbEntity
  8
1
  6
Continuous
 62
     7
100
AcDbLine
 10
855.600028
 20
427.45794
 30
0.0
 11
847.300025
 21
437.957943
 31
0.0
  0
LINE
  5
155
100
AcDbEntity
  8
1
  6
Continuous
 62
     7
100
AcDbLine
 10
844.952138
 20
472.957945
 30
0.0
 11
855.600028
 21
459.457941
 31
0.0
  0
LINE
  5
156
100
AcDbEntity
  8
1
  6
Continuous
 62
     7
100
AcDbLine
 10
625.047905
 20
472.957945
 30
0.0
 11
614.400015
 21
459.457941
 31
0.0
  0
LINE
  5
157
100
AcDbEntity
  8
1
  6
CENTER
 62
     7
100
AcDbLine
 10
875.000031
 20
505.757943
 30
0.0
 11
875.000031
 21
456.957944
 31
0.0
  0
LINE
  5
158
100
AcDbEntity
  8
1
  6
CENTER
 62
     7
100
AcDbLine
 10
875.000031
 20
460.657944
 30
0.0
 11
875.000031
 21
505.757943
 31
0.0
  0
LINE
  5
159
100
AcDbEntity
  8
1
  6
Continuous
 62
     7
100
AcDbLine
 10
735.000022
 20
324.957939
 30
0.0
 11
575.000014
 21
324.957939
 31
0.0
  0
LINE
  5
15A
100
AcDbEntity
  8
1
  6
Continuous
 62
     7
100
AcDbLine
 10
575.000014
 20
324.957939
 30
0.0
 11
575.000014
 21
304.957935
 31
0.0
  0
LINE
  5
15B
100
AcDbEntity
  8
1
  6
Continuous
 62
     7
100
AcDbLine
 10
575.000014
 20
304.957935
 30
0.0
 11
735.000022
 21
304.957935
 31
0.0
  0
LINE
  5
15C
100
AcDbEntity
  8
1
  6
CENTER
 62
     7
100
AcDbLine
 10
595.000013
 20
292.157936
 30
0.0
 11
595.000013
 21
340.95794
 31
0.0
  0
LINE
  5
15D
100
AcDbEntity
  8
1
  6
CENTER
 62
     7
100
AcDbLine
 10
595.000013
 20
292.157936
 30
0.0
 11
595.000013
 21
340.95794
 31
0.0
  0
LINE
  5
15E
100
AcDbEntity
  8
1
  6
Continuous
 62
     7
100
AcDbLine
 10
625.600017
 20
324.25794
 30
0.0
 11
614.400015
 21
338.457937
 31
0.0
  0
ARC
  5
15F
100
AcDbEntity
  8
1
  6
Continuous
 62
     7
100
AcDbCircle
 10
618.000023
 20
340.95794
 30
0.0
 40
4.500001
100
AcDbArc
 50
144.901026
 51
-147.719137
  0
LINE
  5
160
100
AcDbEntity
  8
1
  6
Continuous
 62
     7
100
AcDbLine
 10
621.200018
 20
353.95794
 30
0.0
 11
735.000022
 21
353.95794
 31
0.0
  0
LINE
  5
161
100
AcDbEntity
  8
1
  6
Continuous
 62
     7
100
AcDbLine
 10
621.200018
 20
359.957941
 30
0.0
 11
735.000022
 21
359.957941
 31
0.0
  0
ARC
  5
162
100
AcDbEntity
  8
1
  6
Continuous
 62
     7
100
AcDbCircle
 10
621.200018
 20
356.957941
 30
0.0
 40
3.000001
100
AcDbArc
 50
90.01167
 51
-90.022287
  0
LINE
  5
163
100
AcDbEntity
  8
1
  6
Continuous
 62
     7
100
AcDbLine
 10
622.700019
 20
353.95794
 30
0.0
 11
614.400015
 21
343.457937
 31
0.0
  0
LINE
  5
164
100
AcDbEntity
  8
1
  6
Continuous
 62
     7
100
AcDbLine
 10
614.400015
 20
370.457939
 30
0.0
 11
622.700019
 21
359.957941
 31
0.0
  0
LINE
  5
165
100
AcDbEntity
  8
1
  6
Continuous
 62
     7
100
AcDbLine
 10
618.200018
 20
340.95794
 30
0.0
 11
735.000022
 21
340.95794
 31
0.0
  0
LINE
  5
166
100
AcDbEntity
  8
1
  6
CENTER
 62
     7
100
AcDbLine
 10
615.000016
 20
356.957941
 30
0.0
 11
735.000022
 21
356.957941
 31
0.0
  0
ARC
  5
167
100
AcDbEntity
  8
1
  6
Continuous
 62
     7
100
AcDbCircle
 10
618.000023
 20
372.957936
 30
0.0
 40
4.500001
100
AcDbArc
 50
144.901026
 51
-147.719137
  0
LINE
  5
168
100
AcDbEntity
  8
1
  6
Continuous
 62
     7
100
AcDbLine
 10
622.700019
 20
385.957941
 30
0.0
 11
614.400015
 21
375.457938
 31
0.0
  0
LINE
  5
169
100
AcDbEntity
  8
1
  6
Continuous
 62
     7
100
AcDbLine
 10
618.200018
 20
372.957936
 30
0.0
 11
735.000022
 21
372.957936
 31
0.0
  0
LINE
  5
16A
100
AcDbEntity
  8
1
  6
Continuous
 62
     7
100
AcDbLine
 10
614.400015
 20
370.457939
 30
0.0
 11
622.700019
 21
359.957941
 31
0.0
  0
LINE
  5
16B
100
AcDbEntity
  8
1
  6
Continuous
 62
     7
100
AcDbLine
 10
606.500018
 20
304.957935
 30
0.0
 11
606.500018
 21
298.157943
 31
0.0
  0
LINE
  5
16C
100
AcDbEntity
  8
1
  6
Continuous
 62
     7
100
AcDbLine
 10
606.500018
 20
302.657939
 30
0.0
 11
735.000022
 21
302.657939
 31
0.0
  0
LINE
  5
16D
100
AcDbEntity
  8
1
  6
Continuous
 62
     7
100
AcDbLine
 10
606.500018
 20
301.157938
 30
0.0
 11
735.000022
 21
301.157938
 31
0.0
  0
LINE
  5
16E
100
AcDbEntity
  8
1
  6
Continuous
 62
     7
100
AcDbLine
 10
606.500018
 20
298.157943
 30
0.0
 11
735.000022
 21
298.157943
 31
0.0
  0
ARC
  5
16F
100
AcDbEntity
  8
1
  6
Continuous
 62
     7
100
AcDbCircle
 10
638.600022
 20
262.757934
 30
0.0
 40
1.000002
100
AcDbArc
 50
-84.292709
 51
-0.010617
  0
LINE
  5
170
100
AcDbEntity
  8
1
  6
Continuous
 62
     7
100
AcDbLine
 10
639.500021
 20
266.057939
 30
0.0
 11
639.600019
 21
262.757934
 31
0.0
  0
LINE
  5
171
100
AcDbEntity
  8
1
  6
Continuous
 62
     7
100
AcDbLine
 10
639.000017
 20
261.65794
 30
0.0
 11
735.000022
 21
261.65794
 31
0.0
  0
LINE
  5
172
100
AcDbEntity
  8
1
  6
Continuous
 62
     7
100
AcDbLine
 10
639.000017
 20
257.35794
 30
0.0
 11
735.000022
 21
257.35794
 31
0.0
  0
LINE
  5
173
100
AcDbEntity
  8
1
  6
Continuous
 62
     7
100
AcDbLine
 10
639.500021
 20
266.057939
 30
0.0
 11
735.000022
 21
266.057939
 31
0.0
  0
ARC
  5
174
100
AcDbEntity
  8
1
  6
Continuous
 62
     7
100
AcDbCircle
 10
639.000017
 20
259.557939
 30
0.0
 40
2.199999
100
AcDbArc
 50
97.7466
 51
-90.022287
  0
LINE
  5
175
100
AcDbEntity
  8
1
  6
Continuous
 62
     7
100
AcDbLine
 10
639.000017
 20
259.557939
 30
0.0
 11
735.000022
 21
259.557939
 31
0.0
  0
LINE
  5
176
100
AcDbEntity
  8
1
  6
Continuous
 62
     7
100
AcDbLine
 10
640.326464
 20
266.057939
 30
0.0
 11
639.000017
 21
298.157943
 31
0.0
  0
LINE
  5
177
100
AcDbEntity
  8
1
  6
Continuous
 62
     7
100
AcDbLine
 10
735.000022
 20
324.957939
 30
0.0
 11
895.000029
 21
324.957939
 31
0.0
  0
LINE
  5
178
100
AcDbEntity
  8
1
  6
Continuous
 62
     7
100
AcDbLine
 10
895.000029
 20
324.957939
 30
0.0
 11
895.000029
 21
304.957935
 31
0.0
  0
LINE
  5
179
100
AcDbEntity
  8
1
  6
Continuous
 62
     7
100
AcDbLine
 10
895.000029
 20
304.957935
 30
0.0
 11
735.000022
 21
304.957935
 31
0.0
  0
LINE
  5
17A
100
AcDbEntity
  8
1
  6
CENTER
 62
     7
100
AcDbLine
 10
875.000031
 20
292.157936
 30
0.0
 11
875.000031
 21
340.95794
 31
0.0
  0
LINE
  5
17B
100
AcDbEntity
  8
1
  6
CENTER
 62
     7
100
AcDbLine
 10
875.000031
 20
292.157936
 30
0.0
 11
875.000031
 21
340.95794
 31
0.0
  0
LINE
  5
17C
100
AcDbEntity
  8
1
  6
Continuous
 62
     7
100
AcDbLine
 10
844.400027
 20
324.25794
 30
0.0
 11
855.600028
 21
338.457937
 31
0.0
  0
ARC
  5
17D
100
AcDbEntity
  8
1
  6
Continuous
 62
     7
100
AcDbCircle
 10
852.000021
 20
340.95794
 30
0.0
 40
4.500001
100
AcDbArc
 50
-32.280863
 51
35.098974
  0
LINE
  5
17E
100
AcDbEntity
  8
1
  6
Continuous
 62
     7
100
AcDbLine
 10
848.800025
 20
353.95794
 30
0.0
 11
735.000022
 21
353.95794
 31
0.0
  0
LINE
  5
17F
100
AcDbEntity
  8
1
  6
Continuous
 62
     7
100
AcDbLine
 10
848.800025
 20
359.957941
 30
0.0
 11
735.000022
 21
359.957941
 31
0.0
  0
ARC
  5
180
100
AcDbEntity
  8
1
  6
Continuous
 62
     7
100
AcDbCircle
 10
848.800025
 20
356.957941
 30
0.0
 40
3.000001
100
AcDbArc
 50
-89.977713
 51
89.98833
  0
LINE
  5
181
100
AcDbEntity
  8
1
  6
Continuous
 62
     7
100
AcDbLine
 10
847.300025
 20
353.95794
 30
0.0
 11
855.600028
 21
343.457937
 31
0.0
  0
LINE
  5
182
100
AcDbEntity
  8
1
  6
Continuous
 62
     7
100
AcDbLine
 10
855.600028
 20
370.457939
 30
0.0
 11
847.300025
 21
359.957941
 31
0.0
  0
LINE
  5
183
100
AcDbEntity
  8
1
  6
Continuous
 62
     7
100
AcDbLine
 10
851.800026
 20
340.95794
 30
0.0
 11
735.000022
 21
340.95794
 31
0.0
  0
LINE
  5
184
100
AcDbEntity
  8
1
  6
CENTER
 62
     7
100
AcDbLine
 10
855.000027
 20
356.957941
 30
0.0
 11
735.000022
 21
356.957941
 31
0.0
  0
ARC
  5
185
100
AcDbEntity
  8
1
  6
Continuous
 62
     7
100
AcDbCircle
 10
852.000021
 20
372.957936
 30
0.0
 40
4.500001
100
AcDbArc
 50
-32.280863
 51
35.098974
  0
LINE
  5
186
100
AcDbEntity
  8
1
  6
Continuous
 62
     7
100
AcDbLine
 10
847.300025
 20
385.957941
 30
0.0
 11
855.600028
 21
375.457938
 31
0.0
  0
LINE
  5
187
100
AcDbEntity
  8
1
  6
Continuous
 62
     7
100
AcDbLine
 10
851.800026
 20
372.957936
 30
0.0
 11
735.000022
 21
372.957936
 31
0.0
  0
LINE
  5
188
100
AcDbEntity
  8
1
  6
Continuous
 62
     7
100
AcDbLine
 10
855.600028
 20
370.457939
 30
0.0
 11
847.300025
 21
359.957941
 31
0.0
  0
LINE
  5
189
100
AcDbEntity
  8
1
  6
Continuous
 62
     7
100
AcDbLine
 10
863.500026
 20
304.957935
 30
0.0
 11
863.500026
 21
298.157943
 31
0.0
  0
LINE
  5
18A
100
AcDbEntity
  8
1
  6
Continuous
 62
     7
100
AcDbLine
 10
863.500026
 20
302.657939
 30
0.0
 11
735.000022
 21
302.657939
 31
0.0
  0
LINE
  5
18B
100
AcDbEntity
  8
1
  6
Continuous
 62
     7
100
AcDbLine
 10
863.500026
 20
301.157938
 30
0.0
 11
735.000022
 21
301.157938
 31
0.0
  0
LINE
  5
18C
100
AcDbEntity
  8
1
  6
Continuous
 62
     7
100
AcDbLine
 10
863.500026
 20
298.157943
 30
0.0
 11
735.000022
 21
298.157943
 31
0.0
  0
ARC
  5
18D
100
AcDbEntity
  8
1
  6
Continuous
 62
     7
100
AcDbCircle
 10
831.400021
 20
262.757934
 30
0.0
 40
1.000002
100
AcDbArc
 50
-179.989383
 51
-95.707291
  0
LINE
  5
18E
100
AcDbEntity
  8
1
  6
Continuous
 62
     7
100
AcDbLine
 10
830.500022
 20
266.057939
 30
0.0
 11
830.400025
 21
262.757934
 31
0.0
  0
LINE
  5
18F
100
AcDbEntity
  8
1
  6
Continuous
 62
     7
100
AcDbLine
 10
831.000026
 20
261.65794
 30
0.0
 11
735.000022
 21
261.65794
 31
0.0
  0
LINE
  5
190
100
AcDbEntity
  8
1
  6
Continuous
 62
     7
100
AcDbLine
 10
831.000026
 20
257.35794
 30
0.0
 11
735.000022
 21
257.35794
 31
0.0
  0
LINE
  5
191
100
AcDbEntity
  8
1
  6
Continuous
 62
     7
100
AcDbLine
 10
830.500022
 20
266.057939
 30
0.0
 11
735.000022
 21
266.057939
 31
0.0
  0
ARC
  5
192
100
AcDbEntity
  8
1
  6
Continuous
 62
     7
100
AcDbCircle
 10
831.000026
 20
259.557939
 30
0.0
 40
2.199999
100
AcDbArc
 50
-89.977713
 51
82.2534
  0
LINE
  5
193
100
AcDbEntity
  8
1
  6
Continuous
 62
     7
100
AcDbLine
 10
831.000026
 20
259.557939
 30
0.0
 11
735.000022
 21
259.557939
 31
0.0
  0
LINE
  5
194
100
AcDbEntity
  8
1
  6
Continuous
 62
     7
100
AcDbLine
 10
829.673579
 20
266.057939
 30
0.0
 11
831.000026
 21
298.157943
 31
0.0
  0
LINE
  5
195
100
AcDbEntity
  8
1
  6
CENTER
 62
     7
100
AcDbLine
 10
856.500022
 20
373.057939
 30
0.0
 11
856.500022
 21
424.957937
 31
0.0
  0
LINE
  5
196
100
AcDbEntity
  8
1
  6
CENTER
 62
     7
100
AcDbLine
 10
613.500021
 20
373.057939
 30
0.0
 11
613.500021
 21
424.957937
 31
0.0
  0
LINE
  5
197
100
AcDbEntity
  8
1
  6
CENTER
 62
     7
100
AcDbLine
 10
735.000022
 20
515.177939
 30
0.0
 11
735.000022
 21
241.163004
 31
0.0
  0
CIRCLE
  5
198
100
AcDbEntity
  8
1
  6
Continuous
 62
     7
100
AcDbCircle
 10
735.000022
 20
851.396805
 30
0.0
 40
160.0
  0
CIRCLE
  5
199
100
AcDbEntity
  8
1
  6
Continuous
 62
     7
100
AcDbCircle
 10
735.000022
 20
851.396805
 30
0.0
 40
128.5
  0
CIRCLE
  5
19A
100
AcDbEntity
  8
1
  6
Continuous
 62
     7
100
AcDbCircle
 10
735.000022
 20
851.396805
 30
0.0
 40
107.5
  0
CIRCLE
  5
19B
100
AcDbEntity
  8
1
  6
HIDDEN
 62
     7
100
AcDbCircle
 10
735.000022
 20
851.396805
 30
0.0
 40
110.5
  0
LINE
  5
19C
100
AcDbEntity
  8
1
  6
CENTER
 62
     7
100
AcDbLine
 10
735.000022
 20
1023.983434
 30
0.0
 11
735.000022
 21
672.157943
 31
0.0
  0
LINE
  5
19D
100
AcDbEntity
  8
1
  6
CENTER
 62
     7
100
AcDbLine
 10
553.501901
 20
851.396805
 30
0.0
 11
918.848436
 21
851.396805
 31
0.0
  0
CIRCLE
  5
19E
100
AcDbEntity
  8
1
  6
PHANTOM
 62
     7
100
AcDbCircle
 10
735.000022
 20
851.396805
 30
0.0
 40
140.0
  0
CIRCLE
  5
19F
100
AcDbEntity
  8
1
  6
Continuous
 62
     7
100
AcDbCircle
 10
735.000022
 20
991.396805
 30
0.0
 40
11.5
  0
CIRCLE
  5
1A0
100
AcDbEntity
  8
1
  6
Continuous
 62
     7
100
AcDbCircle
 10
636.005072
 20
950.391754
 30
0.0
 40
11.5
  0
CIRCLE
  5
1A1
100
AcDbEntity
  8
1
  6
Continuous
 62
     7
100
AcDbCircle
 10
595.000022
 20
851.396805
 30
0.0
 40
11.5
  0
CIRCLE
  5
1A2
100
AcDbEntity
  8
1
  6
Continuous
 62
     7
100
AcDbCircle
 10
636.005072
 20
752.401855
 30
0.0
 40
11.5
  0
CIRCLE
  5
1A3
100
AcDbEntity
  8
1
  6
Continuous
 62
     7
100
AcDbCircle
 10
735.000022
 20
711.396805
 30
0.0
 40
11.5
  0
CIRCLE
  5
1A4
100
AcDbEntity
  8
1
  6
Continuous
 62
     7
100
AcDbCircle
 10
833.994971
 20
752.401855
 30
0.0
 40
11.5
  0
CIRCLE
  5
1A5
100
AcDbEntity
  8
1
  6
Continuous
 62
     7
100
AcDbCircle
 10
875.000022
 20
851.396805
 30
0.0
 40
11.5
  0
CIRCLE
  5
1A6
100
AcDbEntity
  8
1
  6
Continuous
 62
     7
100
AcDbCircle
 10
833.994971
 20
950.391754
 30
0.0
 40
11.5
  0
LINE
  5
1A7
100
AcDbEntity
  8
1
  6
CENTER
 62
     7
100
AcDbLine
 10
845.72897
 20
962.125753
 30
0.0
 11
821.548896
 21
937.945679
 31
0.0
  0
LINE
  5
1A8
100
AcDbEntity
  8
1
  6
CENTER
 62
     7
100
AcDbLine
 10
821.548896
 20
764.84793
 30
0.0
 11
845.72897
 21
740.667856
 31
0.0
  0
LINE
  5
1A9
100
AcDbEntity
  8
1
  6
CENTER
 62
     7
100
AcDbLine
 10
624.271073
 20
740.667856
 30
0.0
 11
648.451147
 21
764.84793
 31
0.0
  0
LINE
  5
1AA
100
AcDbEntity
  8
1
  6
CENTER
 62
     7
100
AcDbLine
 10
624.271073
 20
962.125753
 30
0.0
 11
648.451147
 21
937.945679
 31
0.0
  0
LINE
  5
1AB
100
AcDbEntity
  8
1
  6
CENTER
 62
     7
100
AcDbLine
 10
1182.500036
 20
268.357936
 30
0.0
 11
1182.500036
 21
268.457938
 31
0.0
  0
LINE
  5
1AC
100
AcDbEntity
  8
1
  6
Continuous
 62
     7
100
AcDbLine
 10
1182.500036
 20
512.957945
 30
0.0
 11
1022.500029
 21
512.957945
 31
0.0
  0
LINE
  5
1AD
100
AcDbEntity
  8
1
  6
Continuous
 62
     7
100
AcDbLine
 10
1022.500029
 20
512.957945
 30
0.0
 11
1022.500029
 21
532.957943
 31
0.0
  0
LINE
  5
1AE
100
AcDbEntity
  8
1
  6
Continuous
 62
     7
100
AcDbLine
 10
1022.500029
 20
532.957943
 30
0.0
 11
1182.500036
 21
532.957943
 31
0.0
  0
LINE
  5
1AF
100
AcDbEntity
  8
1
  6
Continuous
 62
     7
100
AcDbLine
 10
1054.000032
 20
532.957943
 30
0.0
 11
1054.000032
 21
538.157943
 31
0.0
  0
LINE
  5
1B0
100
AcDbEntity
  8
1
  6
Continuous
 62
     7
100
AcDbLine
 10
1054.000032
 20
538.157943
 30
0.0
 11
1182.500036
 21
538.157943
 31
0.0
  0
LINE
  5
1B1
100
AcDbEntity
  8
1
  6
Continuous
 62
     7
100
AcDbLine
 10
1054.000032
 20
535.157942
 30
0.0
 11
1182.500036
 21
535.157942
 31
0.0
  0
LINE
  5
1B2
100
AcDbEntity
  8
1
  6
Continuous
 62
     7
100
AcDbLine
 10
1054.000032
 20
534.357941
 30
0.0
 11
1182.500036
 21
534.357941
 31
0.0
  0
LINE
  5
1B3
100
AcDbEntity
  8
1
  6
CENTER
 62
     7
100
AcDbLine
 10
1042.500027
 20
545.757943
 30
0.0
 11
1042.500027
 21
496.957944
 31
0.0
  0
ARC
  5
1B4
100
AcDbEntity
  8
1
  6
Continuous
 62
     7
100
AcDbCircle
 10
1065.500037
 20
496.957944
 30
0.0
 40
4.500001
100
AcDbArc
 50
147.70852
 51
-144.911644
  0
LINE
  5
1B5
100
AcDbEntity
  8
1
  6
Continuous
 62
     7
100
AcDbLine
 10
1068.700033
 20
483.957939
 30
0.0
 11
1182.500036
 21
483.957939
 31
0.0
  0
LINE
  5
1B6
100
AcDbEntity
  8
1
  6
Continuous
 62
     7
100
AcDbLine
 10
1068.700033
 20
477.957943
 30
0.0
 11
1182.500036
 21
477.957943
 31
0.0
  0
ARC
  5
1B7
100
AcDbEntity
  8
1
  6
Continuous
 62
     7
100
AcDbCircle
 10
1068.700033
 20
480.957944
 30
0.0
 40
3.000001
100
AcDbArc
 50
90.01167
 51
-90.022287
  0
LINE
  5
1B8
100
AcDbEntity
  8
1
  6
Continuous
 62
     7
100
AcDbLine
 10
1070.200033
 20
483.957939
 30
0.0
 11
1061.900029
 21
494.457942
 31
0.0
  0
LINE
  5
1B9
100
AcDbEntity
  8
1
  6
Continuous
 62
     7
100
AcDbLine
 10
1061.900029
 20
467.45794
 30
0.0
 11
1070.200033
 21
477.957943
 31
0.0
  0
LINE
  5
1BA
100
AcDbEntity
  8
1
  6
Continuous
 62
     7
100
AcDbLine
 10
1065.700032
 20
496.957944
 30
0.0
 11
1182.500036
 21
496.957944
 31
0.0
  0
LINE
  5
1BB
100
AcDbEntity
  8
1
  6
CENTER
 62
     7
100
AcDbLine
 10
1062.500031
 20
480.957944
 30
0.0
 11
1182.500036
 21
480.957944
 31
0.0
  0
ARC
  5
1BC
100
AcDbEntity
  8
1
  6
Continuous
 62
     7
100
AcDbCircle
 10
1065.500037
 20
464.957937
 30
0.0
 40
4.500001
100
AcDbArc
 50
147.70852
 51
-144.911644
  0
LINE
  5
1BD
100
AcDbEntity
  8
1
  6
Continuous
 62
     7
100
AcDbLine
 10
1070.200033
 20
451.957943
 30
0.0
 11
1061.900029
 21
462.45794
 31
0.0
  0
LINE
  5
1BE
100
AcDbEntity
  8
1
  6
Continuous
 62
     7
100
AcDbLine
 10
1065.700032
 20
464.957937
 30
0.0
 11
1182.500036
 21
464.957937
 31
0.0
  0
LINE
  5
1BF
100
AcDbEntity
  8
1
  6
Continuous
 62
     7
100
AcDbLine
 10
1061.900029
 20
467.45794
 30
0.0
 11
1070.200033
 21
477.957943
 31
0.0
  0
LINE
  5
1C0
100
AcDbEntity
  8
1
  6
CENTER
 62
     7
100
AcDbLine
 10
1042.500027
 20
500.657944
 30
0.0
 11
1042.500027
 21
545.757943
 31
0.0
  0
LINE
  5
1C1
100
AcDbEntity
  8
1
  6
Continuous
 62
     7
100
AcDbLine
 10
1182.500036
 20
512.957945
 30
0.0
 11
1342.500043
 21
512.957945
 31
0.0
  0
LINE
  5
1C2
100
AcDbEntity
  8
1
  6
Continuous
 62
     7
100
AcDbLine
 10
1342.500043
 20
512.957945
 30
0.0
 11
1342.500043
 21
532.957943
 31
0.0
  0
LINE
  5
1C3
100
AcDbEntity
  8
1
  6
Continuous
 62
     7
100
AcDbLine
 10
1342.500043
 20
532.957943
 30
0.0
 11
1182.500036
 21
532.957943
 31
0.0
  0
LINE
  5
1C4
100
AcDbEntity
  8
1
  6
Continuous
 62
     7
100
AcDbLine
 10
1311.00004
 20
532.957943
 30
0.0
 11
1311.00004
 21
538.157943
 31
0.0
  0
LINE
  5
1C5
100
AcDbEntity
  8
1
  6
Continuous
 62
     7
100
AcDbLine
 10
1311.00004
 20
538.157943
 30
0.0
 11
1182.500036
 21
538.157943
 31
0.0
  0
LINE
  5
1C6
100
AcDbEntity
  8
1
  6
Continuous
 62
     7
100
AcDbLine
 10
1311.00004
 20
535.157942
 30
0.0
 11
1182.500036
 21
535.157942
 31
0.0
  0
LINE
  5
1C7
100
AcDbEntity
  8
1
  6
Continuous
 62
     7
100
AcDbLine
 10
1311.00004
 20
534.357941
 30
0.0
 11
1182.500036
 21
534.357941
 31
0.0
  0
ARC
  5
1C8
100
AcDbEntity
  8
1
  6
Continuous
 62
     7
100
AcDbCircle
 10
1299.500035
 20
496.957944
 30
0.0
 40
4.500001
100
AcDbArc
 50
-35.088356
 51
32.29148
  0
LINE
  5
1C9
100
AcDbEntity
  8
1
  6
Continuous
 62
     7
100
AcDbLine
 10
1296.300039
 20
483.957939
 30
0.0
 11
1182.500036
 21
483.957939
 31
0.0
  0
LINE
  5
1CA
100
AcDbEntity
  8
1
  6
Continuous
 62
     7
100
AcDbLine
 10
1296.300039
 20
477.957943
 30
0.0
 11
1182.500036
 21
477.957943
 31
0.0
  0
ARC
  5
1CB
100
AcDbEntity
  8
1
  6
Continuous
 62
     7
100
AcDbCircle
 10
1296.300039
 20
480.957944
 30
0.0
 40
3.000001
100
AcDbArc
 50
-89.977713
 51
89.98833
  0
LINE
  5
1CC
100
AcDbEntity
  8
1
  6
Continuous
 62
     7
100
AcDbLine
 10
1294.800039
 20
483.957939
 30
0.0
 11
1303.100043
 21
494.457942
 31
0.0
  0
LINE
  5
1CD
100
AcDbEntity
  8
1
  6
Continuous
 62
     7
100
AcDbLine
 10
1303.100043
 20
467.45794
 30
0.0
 11
1294.800039
 21
477.957943
 31
0.0
  0
LINE
  5
1CE
100
AcDbEntity
  8
1
  6
Continuous
 62
     7
100
AcDbLine
 10
1299.30004
 20
496.957944
 30
0.0
 11
1182.500036
 21
496.957944
 31
0.0
  0
LINE
  5
1CF
100
AcDbEntity
  8
1
  6
CENTER
 62
     7
100
AcDbLine
 10
1302.500042
 20
480.957944
 30
0.0
 11
1182.500036
 21
480.957944
 31
0.0
  0
ARC
  5
1D0
100
AcDbEntity
  8
1
  6
Continuous
 62
     7
100
AcDbCircle
 10
1299.500035
 20
464.957937
 30
0.0
 40
4.500001
100
AcDbArc
 50
-35.088356
 51
32.29148
  0
LINE
  5
1D1
100
AcDbEntity
  8
1
  6
Continuous
 62
     7
100
AcDbLine
 10
1294.800039
 20
451.957943
 30
0.0
 11
1303.100043
 21
462.45794
 31
0.0
  0
LINE
  5
1D2
100
AcDbEntity
  8
1
  6
Continuous
 62
     7
100
AcDbLine
 10
1299.30004
 20
464.957937
 30
0.0
 11
1182.500036
 21
464.957937
 31
0.0
  0
LINE
  5
1D3
100
AcDbEntity
  8
1
  6
Continuous
 62
     7
100
AcDbLine
 10
1303.100043
 20
467.45794
 30
0.0
 11
1294.800039
 21
477.957943
 31
0.0
  0
LINE
  5
1D4
100
AcDbEntity
  8
1
  6
Continuous
 62
     7
100
AcDbLine
 10
1292.452153
 20
512.957945
 30
0.0
 11
1303.100043
 21
499.457941
 31
0.0
  0
LINE
  5
1D5
100
AcDbEntity
  8
1
  6
Continuous
 62
     7
100
AcDbLine
 10
1072.547919
 20
512.957945
 30
0.0
 11
1061.900029
 21
499.457941
 31
0.0
  0
LINE
  5
1D6
100
AcDbEntity
  8
1
  6
CENTER
 62
     7
100
AcDbLine
 10
1322.500045
 20
545.757943
 30
0.0
 11
1322.500045
 21
496.957944
 31
0.0
  0
LINE
  5
1D7
100
AcDbEntity
  8
1
  6
CENTER
 62
     7
100
AcDbLine
 10
1322.500045
 20
500.657944
 30
0.0
 11
1322.500045
 21
545.757943
 31
0.0
  0
LINE
  5
1D8
100
AcDbEntity
  8
1
  6
Continuous
 62
     7
100
AcDbLine
 10
1182.500036
 20
324.957939
 30
0.0
 11
1022.500029
 21
324.957939
 31
0.0
  0
LINE
  5
1D9
100
AcDbEntity
  8
1
  6
Continuous
 62
     7
100
AcDbLine
 10
1022.500029
 20
324.957939
 30
0.0
 11
1022.500029
 21
304.957935
 31
0.0
  0
LINE
  5
1DA
100
AcDbEntity
  8
1
  6
Continuous
 62
     7
100
AcDbLine
 10
1022.500029
 20
304.957935
 30
0.0
 11
1182.500036
 21
304.957935
 31
0.0
  0
LINE
  5
1DB
100
AcDbEntity
  8
1
  6
CENTER
 62
     7
100
AcDbLine
 10
1042.500027
 20
292.157936
 30
0.0
 11
1042.500027
 21
340.95794
 31
0.0
  0
LINE
  5
1DC
100
AcDbEntity
  8
1
  6
CENTER
 62
     7
100
AcDbLine
 10
1042.500027
 20
292.157936
 30
0.0
 11
1042.500027
 21
340.95794
 31
0.0
  0
LINE
  5
1DD
100
AcDbEntity
  8
1
  6
Continuous
 62
     7
100
AcDbLine
 10
1073.100031
 20
324.25794
 30
0.0
 11
1061.900029
 21
338.457937
 31
0.0
  0
ARC
  5
1DE
100
AcDbEntity
  8
1
  6
Continuous
 62
     7
100
AcDbCircle
 10
1065.500037
 20
340.95794
 30
0.0
 40
4.500001
100
AcDbArc
 50
144.901026
 51
-147.719137
  0
LINE
  5
1DF
100
AcDbEntity
  8
1
  6
Continuous
 62
     7
100
AcDbLine
 10
1068.700033
 20
353.95794
 30
0.0
 11
1182.500036
 21
353.95794
 31
0.0
  0
LINE
  5
1E0
100
AcDbEntity
  8
1
  6
Continuous
 62
     7
100
AcDbLine
 10
1068.700033
 20
359.957941
 30
0.0
 11
1182.500036
 21
359.957941
 31
0.0
  0
ARC
  5
1E1
100
AcDbEntity
  8
1
  6
Continuous
 62
     7
100
AcDbCircle
 10
1068.700033
 20
356.957941
 30
0.0
 40
3.000001
100
AcDbArc
 50
90.01167
 51
-90.022287
  0
LINE
  5
1E2
100
AcDbEntity
  8
1
  6
Continuous
 62
     7
100
AcDbLine
 10
1070.200033
 20
353.95794
 30
0.0
 11
1061.900029
 21
343.457937
 31
0.0
  0
LINE
  5
1E3
100
AcDbEntity
  8
1
  6
Continuous
 62
     7
100
AcDbLine
 10
1061.900029
 20
370.457939
 30
0.0
 11
1070.200033
 21
359.957941
 31
0.0
  0
LINE
  5
1E4
100
AcDbEntity
  8
1
  6
Continuous
 62
     7
100
AcDbLine
 10
1065.700032
 20
340.95794
 30
0.0
 11
1182.500036
 21
340.95794
 31
0.0
  0
LINE
  5
1E5
100
AcDbEntity
  8
1
  6
CENTER
 62
     7
100
AcDbLine
 10
1062.500031
 20
356.957941
 30
0.0
 11
1182.500036
 21
356.957941
 31
0.0
  0
ARC
  5
1E6
100
AcDbEntity
  8
1
  6
Continuous
 62
     7
100
AcDbCircle
 10
1065.500037
 20
372.957936
 30
0.0
 40
4.500001
100
AcDbArc
 50
144.901026
 51
-147.719137
  0
LINE
  5
1E7
100
AcDbEntity
  8
1
  6
Continuous
 62
     7
100
AcDbLine
 10
1070.200033
 20
385.957941
 30
0.0
 11
1061.900029
 21
375.457938
 31
0.0
  0
LINE
  5
1E8
100
AcDbEntity
  8
1
  6
Continuous
 62
     7
100
AcDbLine
 10
1065.700032
 20
372.957936
 30
0.0
 11
1182.500036
 21
372.957936
 31
0.0
  0
LINE
  5
1E9
100
AcDbEntity
  8
1
  6
Continuous
 62
     7
100
AcDbLine
 10
1061.900029
 20
370.457939
 30
0.0
 11
1070.200033
 21
359.957941
 31
0.0
  0
LINE
  5
1EA
100
AcDbEntity
  8
1
  6
Continuous
 62
     7
100
AcDbLine
 10
1054.000032
 20
304.957935
 30
0.0
 11
1054.000032
 21
298.157943
 31
0.0
  0
LINE
  5
1EB
100
AcDbEntity
  8
1
  6
Continuous
 62
     7
100
AcDbLine
 10
1054.000032
 20
302.657939
 30
0.0
 11
1182.500036
 21
302.657939
 31
0.0
  0
LINE
  5
1EC
100
AcDbEntity
  8
1
  6
Continuous
 62
     7
100
AcDbLine
 10
1054.000032
 20
301.157938
 30
0.0
 11
1182.500036
 21
301.157938
 31
0.0
  0
LINE
  5
1ED
100
AcDbEntity
  8
1
  6
Continuous
 62
     7
100
AcDbLine
 10
1054.000032
 20
298.157943
 30
0.0
 11
1182.500036
 21
298.157943
 31
0.0
  0
ARC
  5
1EE
100
AcDbEntity
  8
1
  6
Continuous
 62
     7
100
AcDbCircle
 10
1086.100036
 20
262.757934
 30
0.0
 40
1.000002
100
AcDbArc
 50
-84.292709
 51
-0.010617
  0
LINE
  5
1EF
100
AcDbEntity
  8
1
  6
Continuous
 62
     7
100
AcDbLine
 10
1087.000036
 20
266.057939
 30
0.0
 11
1087.100033
 21
262.757934
 31
0.0
  0
LINE
  5
1F0
100
AcDbEntity
  8
1
  6
Continuous
 62
     7
100
AcDbLine
 10
1086.500032
 20
261.65794
 30
0.0
 11
1182.500036
 21
261.65794
 31
0.0
  0
LINE
  5
1F1
100
AcDbEntity
  8
1
  6
Continuous
 62
     7
100
AcDbLine
 10
1086.500032
 20
257.35794
 30
0.0
 11
1182.500036
 21
257.35794
 31
0.0
  0
LINE
  5
1F2
100
AcDbEntity
  8
1
  6
Continuous
 62
     7
100
AcDbLine
 10
1087.000036
 20
266.057939
 30
0.0
 11
1182.500036
 21
266.057939
 31
0.0
  0
ARC
  5
1F3
100
AcDbEntity
  8
1
  6
Continuous
 62
     7
100
AcDbCircle
 10
1086.500032
 20
259.557939
 30
0.0
 40
2.199999
100
AcDbArc
 50
97.7466
 51
-90.022287
  0
LINE
  5
1F4
100
AcDbEntity
  8
1
  6
Continuous
 62
     7
100
AcDbLine
 10
1086.500032
 20
259.557939
 30
0.0
 11
1182.500036
 21
259.557939
 31
0.0
  0
LINE
  5
1F5
100
AcDbEntity
  8
1
  6
Continuous
 62
     7
100
AcDbLine
 10
1087.826478
 20
266.057939
 30
0.0
 11
1086.500032
 21
298.157943
 31
0.0
  0
LINE
  5
1F6
100
AcDbEntity
  8
1
  6
Continuous
 62
     7
100
AcDbLine
 10
1182.500036
 20
324.957939
 30
0.0
 11
1342.500043
 21
324.957939
 31
0.0
  0
LINE
  5
1F7
100
AcDbEntity
  8
1
  6
Continuous
 62
     7
100
AcDbLine
 10
1342.500043
 20
324.957939
 30
0.0
 11
1342.500043
 21
304.957935
 31
0.0
  0
LINE
  5
1F8
100
AcDbEntity
  8
1
  6
Continuous
 62
     7
100
AcDbLine
 10
1342.500043
 20
304.957935
 30
0.0
 11
1182.500036
 21
304.957935
 31
0.0
  0
LINE
  5
1F9
100
AcDbEntity
  8
1
  6
CENTER
 62
     7
100
AcDbLine
 10
1322.500045
 20
292.157936
 30
0.0
 11
1322.500045
 21
340.95794
 31
0.0
  0
LINE
  5
1FA
100
AcDbEntity
  8
1
  6
CENTER
 62
     7
100
AcDbLine
 10
1322.500045
 20
292.157936
 30
0.0
 11
1322.500045
 21
340.95794
 31
0.0
  0
LINE
  5
1FB
100
AcDbEntity
  8
1
  6
Continuous
 62
     7
100
AcDbLine
 10
1291.900041
 20
324.25794
 30
0.0
 11
1303.100043
 21
338.457937
 31
0.0
  0
ARC
  5
1FC
100
AcDbEntity
  8
1
  6
Continuous
 62
     7
100
AcDbCircle
 10
1299.500035
 20
340.95794
 30
0.0
 40
4.500001
100
AcDbArc
 50
-32.280863
 51
35.098974
  0
LINE
  5
1FD
100
AcDbEntity
  8
1
  6
Continuous
 62
     7
100
AcDbLine
 10
1296.300039
 20
353.95794
 30
0.0
 11
1182.500036
 21
353.95794
 31
0.0
  0
LINE
  5
1FE
100
AcDbEntity
  8
1
  6
Continuous
 62
     7
100
AcDbLine
 10
1296.300039
 20
359.957941
 30
0.0
 11
1182.500036
 21
359.957941
 31
0.0
  0
ARC
  5
1FF
100
AcDbEntity
  8
1
  6
Continuous
 62
     7
100
AcDbCircle
 10
1296.300039
 20
356.957941
 30
0.0
 40
3.000001
100
AcDbArc
 50
-89.977713
 51
89.98833
  0
LINE
  5
200
100
AcDbEntity
  8
1
  6
Continuous
 62
     7
100
AcDbLine
 10
1294.800039
 20
353.95794
 30
0.0
 11
1303.100043
 21
343.457937
 31
0.0
  0
LINE
  5
201
100
AcDbEntity
  8
1
  6
Continuous
 62
     7
100
AcDbLine
 10
1303.100043
 20
370.457939
 30
0.0
 11
1294.800039
 21
359.957941
 31
0.0
  0
LINE
  5
202
100
AcDbEntity
  8
1
  6
Continuous
 62
     7
100
AcDbLine
 10
1299.30004
 20
340.95794
 30
0.0
 11
1182.500036
 21
340.95794
 31
0.0
  0
LINE
  5
203
100
AcDbEntity
  8
1
  6
CENTER
 62
     7
100
AcDbLine
 10
1302.500042
 20
356.957941
 30
0.0
 11
1182.500036
 21
356.957941
 31
0.0
  0
ARC
  5
204
100
AcDbEntity
  8
1
  6
Continuous
 62
     7
100
AcDbCircle
 10
1299.500035
 20
372.957936
 30
0.0
 40
4.500001
100
AcDbArc
 50
-32.280863
 51
35.098974
  0
LINE
  5
205
100
AcDbEntity
  8
1
  6
Continuous
 62
     7
100
AcDbLine
 10
1294.800039
 20
385.957941
 30
0.0
 11
1303.100043
 21
375.457938
 31
0.0
  0
LINE
  5
206
100
AcDbEntity
  8
1
  6
Continuous
 62
     7
100
AcDbLine
 10
1299.30004
 20
372.957936
 30
0.0
 11
1182.500036
 21
372.957936
 31
0.0
  0
LINE
  5
207
100
AcDbEntity
  8
1
  6
Continuous
 62
     7
100
AcDbLine
 10
1303.100043
 20
370.457939
 30
0.0
 11
1294.800039
 21
359.957941
 31
0.0
  0
LINE
  5
208
100
AcDbEntity
  8
1
  6
Continuous
 62
     7
100
AcDbLine
 10
1311.00004
 20
304.957935
 30
0.0
 11
1311.00004
 21
298.157943
 31
0.0
  0
LINE
  5
209
100
AcDbEntity
  8
1
  6
Continuous
 62
     7
100
AcDbLine
 10
1311.00004
 20
302.657939
 30
0.0
 11
1182.500036
 21
302.657939
 31
0.0
  0
LINE
  5
20A
100
AcDbEntity
  8
1
  6
Continuous
 62
     7
100
AcDbLine
 10
1311.00004
 20
301.157938
 30
0.0
 11
1182.500036
 21
301.157938
 31
0.0
  0
LINE
  5
20B
100
AcDbEntity
  8
1
  6
Continuous
 62
     7
100
AcDbLine
 10
1311.00004
 20
298.157943
 30
0.0
 11
1182.500036
 21
298.157943
 31
0.0
  0
ARC
  5
20C
100
AcDbEntity
  8
1
  6
Continuous
 62
     7
100
AcDbCircle
 10
1278.900036
 20
262.757934
 30
0.0
 40
1.000002
100
AcDbArc
 50
-179.989383
 51
-95.707291
  0
LINE
  5
20D
100
AcDbEntity
  8
1
  6
Continuous
 62
     7
100
AcDbLine
 10
1278.000037
 20
266.057939
 30
0.0
 11
1277.900039
 21
262.757934
 31
0.0
  0
LINE
  5
20E
100
AcDbEntity
  8
1
  6
Continuous
 62
     7
100
AcDbLine
 10
1278.50004
 20
261.65794
 30
0.0
 11
1182.500036
 21
261.65794
 31
0.0
  0
LINE
  5
20F
100
AcDbEntity
  8
1
  6
Continuous
 62
     7
100
AcDbLine
 10
1278.50004
 20
257.35794
 30
0.0
 11
1182.500036
 21
257.35794
 31
0.0
  0
LINE
  5
210
100
AcDbEntity
  8
1
  6
Continuous
 62
     7
100
AcDbLine
 10
1278.000037
 20
266.057939
 30
0.0
 11
1182.500036
 21
266.057939
 31
0.0
  0
ARC
  5
211
100
AcDbEntity
  8
1
  6
Continuous
 62
     7
100
AcDbCircle
 10
1278.50004
 20
259.557939
 30
0.0
 40
2.199999
100
AcDbArc
 50
-89.977713
 51
82.2534
  0
LINE
  5
212
100
AcDbEntity
  8
1
  6
Continuous
 62
     7
100
AcDbLine
 10
1278.50004
 20
259.557939
 30
0.0
 11
1182.500036
 21
259.557939
 31
0.0
  0
LINE
  5
213
100
AcDbEntity
  8
1
  6
Continuous
 62
     7
100
AcDbLine
 10
1277.173594
 20
266.057939
 30
0.0
 11
1278.50004
 21
298.157943
 31
0.0
  0
LINE
  5
214
100
AcDbEntity
  8
1
  6
CENTER
 62
     7
100
AcDbLine
 10
1304.000036
 20
373.057939
 30
0.0
 11
1304.000036
 21
464.957937
 31
0.0
  0
LINE
  5
215
100
AcDbEntity
  8
1
  6
CENTER
 62
     7
100
AcDbLine
 10
1061.000036
 20
373.057939
 30
0.0
 11
1061.000036
 21
464.957937
 31
0.0
  0
LINE
  5
216
100
AcDbEntity
  8
1
  6
CENTER
 62
     7
100
AcDbLine
 10
1182.500036
 20
555.177939
 30
0.0
 11
1182.500036
 21
241.279762
 31
0.0
  0
CIRCLE
  5
217
100
AcDbEntity
  8
1
  6
Continuous
 62
     7
100
AcDbCircle
 10
1182.500036
 20
891.396805
 30
0.0
 40
160.0
  0
CIRCLE
  5
218
100
AcDbEntity
  8
1
  6
Continuous
 62
     7
100
AcDbCircle
 10
1182.500036
 20
891.396805
 30
0.0
 40
128.5
  0
CIRCLE
  5
219
100
AcDbEntity
  8
1
  6
Continuous
 62
     7
100
AcDbCircle
 10
1182.500036
 20
891.396805
 30
0.0
 40
107.5
  0
CIRCLE
  5
21A
100
AcDbEntity
  8
1
  6
HIDDEN
 62
     7
100
AcDbCircle
 10
1182.500036
 20
891.396805
 30
0.0
 40
110.5
  0
LINE
  5
21B
100
AcDbEntity
  8
1
  6
CENTER
 62
     7
100
AcDbLine
 10
1182.500036
 20
1063.983434
 30
0.0
 11
1182.500036
 21
712.157943
 31
0.0
  0
LINE
  5
21C
100
AcDbEntity
  8
1
  6
CENTER
 62
     7
100
AcDbLine
 10
1001.001916
 20
891.396805
 30
0.0
 11
1366.34845
 21
891.396805
 31
0.0
  0
CIRCLE
  5
21D
100
AcDbEntity
  8
1
  6
PHANTOM
 62
     7
100
AcDbCircle
 10
1182.500036
 20
891.396805
 30
0.0
 40
140.0
  0
CIRCLE
  5
21E
100
AcDbEntity
  8
1
  6
Continuous
 62
     7
100
AcDbCircle
 10
1182.500036
 20
1031.396805
 30
0.0
 40
11.5
  0
CIRCLE
  5
21F
100
AcDbEntity
  8
1
  6
Continuous
 62
     7
100
AcDbCircle
 10
1083.505087
 20
990.391754
 30
0.0
 40
11.5
  0
CIRCLE
  5
220
100
AcDbEntity
  8
1
  6
Continuous
 62
     7
100
AcDbCircle
 10
1042.500036
 20
891.396805
 30
0.0
 40
11.5
  0
CIRCLE
  5
221
100
AcDbEntity
  8
1
  6
Continuous
 62
     7
100
AcDbCircle
 10
1083.505087
 20
792.401855
 30
0.0
 40
11.5
  0
CIRCLE
  5
222
100
AcDbEntity
  8
1
  6
Continuous
 62
     7
100
AcDbCircle
 10
1182.500036
 20
751.396805
 30
0.0
 40
11.5
  0
CIRCLE
  5
223
100
AcDbEntity
  8
1
  6
Continuous
 62
     7
100
AcDbCircle
 10
1281.494986
 20
792.401855
 30
0.0
 40
11.5
  0
CIRCLE
  5
224
100
AcDbEntity
  8
1
  6
Continuous
 62
     7
100
AcDbCircle
 10
1322.500036
 20
891.396805
 30
0.0
 40
11.5
  0
CIRCLE
  5
225
100
AcDbEntity
  8
1
  6
Continuous
 62
     7
100
AcDbCircle
 10
1281.494986
 20
990.391754
 30
0.0
 40
11.5
  0
LINE
  5
226
100
AcDbEntity
  8
1
  6
CENTER
 62
     7
100
AcDbLine
 10
1293.228985
 20
1002.125753
 30
0.0
 11
1269.048911
 21
977.945679
 31
0.0
  0
LINE
  5
227
100
AcDbEntity
  8
1
  6
CENTER
 62
     7
100
AcDbLine
 10
1269.048911
 20
804.84793
 30
0.0
 11
1293.228985
 21
780.667856
 31
0.0
  0
LINE
  5
228
100
AcDbEntity
  8
1
  6
CENTER
 62
     7
100
AcDbLine
 10
1071.771088
 20
780.667856
 30
0.0
 11
1095.951162
 21
804.84793
 31
0.0
  0
LINE
  5
229
100
AcDbEntity
  8
1
  6
CENTER
 62
     7
100
AcDbLine
 10
1071.771087
 20
1002.125753
 30
0.0
 11
1095.951162
 21
977.945679
 31
0.0
  0
LINE
  5
22A
100
AcDbEntity
  8
1
  6
CENTER
 62
     7
100
AcDbLine
 10
1630.000051
 20
298.357936
 30
0.0
 11
1630.000051
 21
298.457938
 31
0.0
  0
LINE
  5
22B
100
AcDbEntity
  8
1
  6
Continuous
 62
     7
100
AcDbLine
 10
1630.000051
 20
542.957945
 30
0.0
 11
1470.000043
 21
542.957945
 31
0.0
  0
LINE
  5
22C
100
AcDbEntity
  8
1
  6
Continuous
 62
     7
100
AcDbLine
 10
1470.000043
 20
542.957945
 30
0.0
 11
1470.000043
 21
562.957943
 31
0.0
  0
LINE
  5
22D
100
AcDbEntity
  8
1
  6
Continuous
 62
     7
100
AcDbLine
 10
1470.000043
 20
562.957943
 30
0.0
 11
1630.000051
 21
562.957943
 31
0.0
  0
LINE
  5
22E
100
AcDbEntity
  8
1
  6
Continuous
 62
     7
100
AcDbLine
 10
1501.500047
 20
562.957943
 30
0.0
 11
1501.500047
 21
568.157943
 31
0.0
  0
LINE
  5
22F
100
AcDbEntity
  8
1
  6
Continuous
 62
     7
100
AcDbLine
 10
1501.500047
 20
568.157943
 30
0.0
 11
1630.000051
 21
568.157943
 31
0.0
  0
LINE
  5
230
100
AcDbEntity
  8
1
  6
Continuous
 62
     7
100
AcDbLine
 10
1501.500047
 20
565.157942
 30
0.0
 11
1630.000051
 21
565.157942
 31
0.0
  0
LINE
  5
231
100
AcDbEntity
  8
1
  6
Continuous
 62
     7
100
AcDbLine
 10
1501.500047
 20
564.357941
 30
0.0
 11
1630.000051
 21
564.357941
 31
0.0
  0
LINE
  5
232
100
AcDbEntity
  8
1
  6
CENTER
 62
     7
100
AcDbLine
 10
1490.000041
 20
575.757943
 30
0.0
 11
1490.000041
 21
526.957944
 31
0.0
  0
ARC
  5
233
100
AcDbEntity
  8
1
  6
Continuous
 62
     7
100
AcDbCircle
 10
1513.000052
 20
526.957944
 30
0.0
 40
4.500001
100
AcDbArc
 50
147.70852
 51
-144.911644
  0
LINE
  5
234
100
AcDbEntity
  8
1
  6
Continuous
 62
     7
100
AcDbLine
 10
1516.200047
 20
513.957939
 30
0.0
 11
1630.000051
 21
513.957939
 31
0.0
  0
LINE
  5
235
100
AcDbEntity
  8
1
  6
Continuous
 62
     7
100
AcDbLine
 10
1516.200047
 20
507.957943
 30
0.0
 11
1630.000051
 21
507.957943
 31
0.0
  0
ARC
  5
236
100
AcDbEntity
  8
1
  6
Continuous
 62
     7
100
AcDbCircle
 10
1516.200047
 20
510.957944
 30
0.0
 40
3.000001
100
AcDbArc
 50
90.01167
 51
-90.022287
  0
LINE
  5
237
100
AcDbEntity
  8
1
  6
Continuous
 62
     7
100
AcDbLine
 10
1517.700048
 20
513.957939
 30
0.0
 11
1509.400044
 21
524.457942
 31
0.0
  0
LINE
  5
238
100
AcDbEntity
  8
1
  6
Continuous
 62
     7
100
AcDbLine
 10
1509.400044
 20
497.45794
 30
0.0
 11
1517.700048
 21
507.957943
 31
0.0
  0
LINE
  5
239
100
AcDbEntity
  8
1
  6
Continuous
 62
     7
100
AcDbLine
 10
1513.200046
 20
526.957944
 30
0.0
 11
1630.000051
 21
526.957944
 31
0.0
  0
LINE
  5
23A
100
AcDbEntity
  8
1
  6
CENTER
 62
     7
100
AcDbLine
 10
1510.000045
 20
510.957944
 30
0.0
 11
1630.000051
 21
510.957944
 31
0.0
  0
ARC
  5
23B
100
AcDbEntity
  8
1
  6
Continuous
 62
     7
100
AcDbCircle
 10
1513.000052
 20
494.957937
 30
0.0
 40
4.500001
100
AcDbArc
 50
147.70852
 51
-144.911644
  0
LINE
  5
23C
100
AcDbEntity
  8
1
  6
Continuous
 62
     7
100
AcDbLine
 10
1517.700048
 20
481.957943
 30
0.0
 11
1509.400044
 21
492.45794
 31
0.0
  0
LINE
  5
23D
100
AcDbEntity
  8
1
  6
Continuous
 62
     7
100
AcDbLine
 10
1513.200046
 20
494.957937
 30
0.0
 11
1630.000051
 21
494.957937
 31
0.0
  0
LINE
  5
23E
100
AcDbEntity
  8
1
  6
Continuous
 62
     7
100
AcDbLine
 10
1509.400044
 20
497.45794
 30
0.0
 11
1517.700048
 21
507.957943
 31
0.0
  0
LINE
  5
23F
100
AcDbEntity
  8
1
  6
CENTER
 62
     7
100
AcDbLine
 10
1490.000041
 20
530.657944
 30
0.0
 11
1490.000041
 21
575.757943
 31
0.0
  0
LINE
  5
240
100
AcDbEntity
  8
1
  6
Continuous
 62
     7
100
AcDbLine
 10
1630.000051
 20
542.957945
 30
0.0
 11
1790.000058
 21
542.957945
 31
0.0
  0
LINE
  5
241
100
AcDbEntity
  8
1
  6
Continuous
 62
     7
100
AcDbLine
 10
1790.000058
 20
542.957945
 30
0.0
 11
1790.000058
 21
562.957943
 31
0.0
  0
LINE
  5
242
100
AcDbEntity
  8
1
  6
Continuous
 62
     7
100
AcDbLine
 10
1790.000058
 20
562.957943
 30
0.0
 11
1630.000051
 21
562.957943
 31
0.0
  0
LINE
  5
243
100
AcDbEntity
  8
1
  6
Continuous
 62
     7
100
AcDbLine
 10
1758.500055
 20
562.957943
 30
0.0
 11
1758.500055
 21
568.157943
 31
0.0
  0
LINE
  5
244
100
AcDbEntity
  8
1
  6
Continuous
 62
     7
100
AcDbLine
 10
1758.500055
 20
568.157943
 30
0.0
 11
1630.000051
 21
568.157943
 31
0.0
  0
LINE
  5
245
100
AcDbEntity
  8
1
  6
Continuous
 62
     7
100
AcDbLine
 10
1758.500055
 20
565.157942
 30
0.0
 11
1630.000051
 21
565.157942
 31
0.0
  0
LINE
  5
246
100
AcDbEntity
  8
1
  6
Continuous
 62
     7
100
AcDbLine
 10
1758.500055
 20
564.357941
 30
0.0
 11
1630.000051
 21
564.357941
 31
0.0
  0
ARC
  5
247
100
AcDbEntity
  8
1
  6
Continuous
 62
     7
100
AcDbCircle
 10
1747.00005
 20
526.957944
 30
0.0
 40
4.500001
100
AcDbArc
 50
-35.088356
 51
32.29148
  0
LINE
  5
248
100
AcDbEntity
  8
1
  6
Continuous
 62
     7
100
AcDbLine
 10
1743.800054
 20
513.957939
 30
0.0
 11
1630.000051
 21
513.957939
 31
0.0
  0
LINE
  5
249
100
AcDbEntity
  8
1
  6
Continuous
 62
     7
100
AcDbLine
 10
1743.800054
 20
507.957943
 30
0.0
 11
1630.000051
 21
507.957943
 31
0.0
  0
ARC
  5
24A
100
AcDbEntity
  8
1
  6
Continuous
 62
     7
100
AcDbCircle
 10
1743.800054
 20
510.957944
 30
0.0
 40
3.000001
100
AcDbArc
 50
-89.977713
 51
89.98833
  0
LINE
  5
24B
100
AcDbEntity
  8
1
  6
Continuous
 62
     7
100
AcDbLine
 10
1742.300054
 20
513.957939
 30
0.0
 11
1750.600057
 21
524.457942
 31
0.0
  0
LINE
  5
24C
100
AcDbEntity
  8
1
  6
Continuous
 62
     7
100
AcDbLine
 10
1750.600057
 20
497.45794
 30
0.0
 11
1742.300054
 21
507.957943
 31
0.0
  0
LINE
  5
24D
100
AcDbEntity
  8
1
  6
Continuous
 62
     7
100
AcDbLine
 10
1746.800055
 20
526.957944
 30
0.0
 11
1630.000051
 21
526.957944
 31
0.0
  0
LINE
  5
24E
100
AcDbEntity
  8
1
  6
CENTER
 62
     7
100
AcDbLine
 10
1750.000056
 20
510.957944
 30
0.0
 11
1630.000051
 21
510.957944
 31
0.0
  0
ARC
  5
24F
100
AcDbEntity
  8
1
  6
Continuous
 62
     7
100
AcDbCircle
 10
1747.00005
 20
494.957937
 30
0.0
 40
4.500001
100
AcDbArc
 50
-35.088356
 51
32.29148
  0
LINE
  5
250
100
AcDbEntity
  8
1
  6
Continuous
 62
     7
100
AcDbLine
 10
1742.300054
 20
481.957943
 30
0.0
 11
1750.600057
 21
492.45794
 31
0.0
  0
LINE
  5
251
100
AcDbEntity
  8
1
  6
Continuous
 62
     7
100
AcDbLine
 10
1746.800055
 20
494.957937
 30
0.0
 11
1630.000051
 21
494.957937
 31
0.0
  0
LINE
  5
252
100
AcDbEntity
  8
1
  6
Continuous
 62
     7
100
AcDbLine
 10
1750.600057
 20
497.45794
 30
0.0
 11
1742.300054
 21
507.957943
 31
0.0
  0
LINE
  5
253
100
AcDbEntity
  8
1
  6
Continuous
 62
     7
100
AcDbLine
 10
1739.952167
 20
542.957945
 30
0.0
 11
1750.600057
 21
529.457941
 31
0.0
  0
LINE
  5
254
100
AcDbEntity
  8
1
  6
Continuous
 62
     7
100
AcDbLine
 10
1520.047934
 20
542.957945
 30
0.0
 11
1509.400044
 21
529.457941
 31
0.0
  0
LINE
  5
255
100
AcDbEntity
  8
1
  6
CENTER
 62
     7
100
AcDbLine
 10
1770.00006
 20
575.757943
 30
0.0
 11
1770.00006
 21
526.957944
 31
0.0
  0
LINE
  5
256
100
AcDbEntity
  8
1
  6
CENTER
 62
     7
100
AcDbLine
 10
1770.00006
 20
530.657944
 30
0.0
 11
1770.00006
 21
575.757943
 31
0.0
  0
LINE
  5
257
100
AcDbEntity
  8
1
  6
Continuous
 62
     7
100
AcDbLine
 10
1630.000051
 20
324.957939
 30
0.0
 11
1470.000043
 21
324.957939
 31
0.0
  0
LINE
  5
258
100
AcDbEntity
  8
1
  6
Continuous
 62
     7
100
AcDbLine
 10
1470.000043
 20
324.957939
 30
0.0
 11
1470.000043
 21
304.957935
 31
0.0
  0
LINE
  5
259
100
AcDbEntity
  8
1
  6
Continuous
 62
     7
100
AcDbLine
 10
1470.000043
 20
304.957935
 30
0.0
 11
1630.000051
 21
304.957935
 31
0.0
  0
LINE
  5
25A
100
AcDbEntity
  8
1
  6
CENTER
 62
     7
100
AcDbLine
 10
1490.000041
 20
292.157936
 30
0.0
 11
1490.000041
 21
340.95794
 31
0.0
  0
LINE
  5
25B
100
AcDbEntity
  8
1
  6
CENTER
 62
     7
100
AcDbLine
 10
1490.000041
 20
292.157936
 30
0.0
 11
1490.000041
 21
340.95794
 31
0.0
  0
LINE
  5
25C
100
AcDbEntity
  8
1
  6
Continuous
 62
     7
100
AcDbLine
 10
1520.600046
 20
324.25794
 30
0.0
 11
1509.400044
 21
338.457937
 31
0.0
  0
ARC
  5
25D
100
AcDbEntity
  8
1
  6
Continuous
 62
     7
100
AcDbCircle
 10
1513.000052
 20
340.95794
 30
0.0
 40
4.500001
100
AcDbArc
 50
144.901026
 51
-147.719137
  0
LINE
  5
25E
100
AcDbEntity
  8
1
  6
Continuous
 62
     7
100
AcDbLine
 10
1516.200047
 20
353.95794
 30
0.0
 11
1630.000051
 21
353.95794
 31
0.0
  0
LINE
  5
25F
100
AcDbEntity
  8
1
  6
Continuous
 62
     7
100
AcDbLine
 10
1516.200047
 20
359.957941
 30
0.0
 11
1630.000051
 21
359.957941
 31
0.0
  0
ARC
  5
260
100
AcDbEntity
  8
1
  6
Continuous
 62
     7
100
AcDbCircle
 10
1516.200047
 20
356.957941
 30
0.0
 40
3.000001
100
AcDbArc
 50
90.01167
 51
-90.022287
  0
LINE
  5
261
100
AcDbEntity
  8
1
  6
Continuous
 62
     7
100
AcDbLine
 10
1517.700048
 20
353.95794
 30
0.0
 11
1509.400044
 21
343.457937
 31
0.0
  0
LINE
  5
262
100
AcDbEntity
  8
1
  6
Continuous
 62
     7
100
AcDbLine
 10
1509.400044
 20
370.457939
 30
0.0
 11
1517.700048
 21
359.957941
 31
0.0
  0
LINE
  5
263
100
AcDbEntity
  8
1
  6
Continuous
 62
     7
100
AcDbLine
 10
1513.200046
 20
340.95794
 30
0.0
 11
1630.000051
 21
340.95794
 31
0.0
  0
LINE
  5
264
100
AcDbEntity
  8
1
  6
CENTER
 62
     7
100
AcDbLine
 10
1510.000045
 20
356.957941
 30
0.0
 11
1630.000051
 21
356.957941
 31
0.0
  0
ARC
  5
265
100
AcDbEntity
  8
1
  6
Continuous
 62
     7
100
AcDbCircle
 10
1513.000052
 20
372.957936
 30
0.0
 40
4.500001
100
AcDbArc
 50
144.901026
 51
-147.719137
  0
LINE
  5
266
100
AcDbEntity
  8
1
  6
Continuous
 62
     7
100
AcDbLine
 10
1517.700048
 20
385.957941
 30
0.0
 11
1509.400044
 21
375.457938
 31
0.0
  0
LINE
  5
267
100
AcDbEntity
  8
1
  6
Continuous
 62
     7
100
AcDbLine
 10
1513.200046
 20
372.957936
 30
0.0
 11
1630.000051
 21
372.957936
 31
0.0
  0
LINE
  5
268
100
AcDbEntity
  8
1
  6
Continuous
 62
     7
100
AcDbLine
 10
1509.400044
 20
370.457939
 30
0.0
 11
1517.700048
 21
359.957941
 31
0.0
  0
LINE
  5
269
100
AcDbEntity
  8
1
  6
Continuous
 62
     7
100
AcDbLine
 10
1501.500047
 20
304.957935
 30
0.0
 11
1501.500047
 21
298.157943
 31
0.0
  0
LINE
  5
26A
100
AcDbEntity
  8
1
  6
Continuous
 62
     7
100
AcDbLine
 10
1501.500047
 20
302.657939
 30
0.0
 11
1630.000051
 21
302.657939
 31
0.0
  0
LINE
  5
26B
100
AcDbEntity
  8
1
  6
Continuous
 62
     7
100
AcDbLine
 10
1501.500047
 20
301.157938
 30
0.0
 11
1630.000051
 21
301.157938
 31
0.0
  0
LINE
  5
26C
100
AcDbEntity
  8
1
  6
Continuous
 62
     7
100
AcDbLine
 10
1501.500047
 20
298.157943
 30
0.0
 11
1630.000051
 21
298.157943
 31
0.0
  0
ARC
  5
26D
100
AcDbEntity
  8
1
  6
Continuous
 62
     7
100
AcDbCircle
 10
1533.600051
 20
262.757934
 30
0.0
 40
1.000002
100
AcDbArc
 50
-84.292709
 51
-0.010617
  0
LINE
  5
26E
100
AcDbEntity
  8
1
  6
Continuous
 62
     7
100
AcDbLine
 10
1534.50005
 20
266.057939
 30
0.0
 11
1534.600048
 21
262.757934
 31
0.0
  0
LINE
  5
26F
100
AcDbEntity
  8
1
  6
Continuous
 62
     7
100
AcDbLine
 10
1534.000046
 20
261.65794
 30
0.0
 11
1630.000051
 21
261.65794
 31
0.0
  0
LINE
  5
270
100
AcDbEntity
  8
1
  6
Continuous
 62
     7
100
AcDbLine
 10
1534.000046
 20
257.35794
 30
0.0
 11
1630.000051
 21
257.35794
 31
0.0
  0
LINE
  5
271
100
AcDbEntity
  8
1
  6
Continuous
 62
     7
100
AcDbLine
 10
1534.50005
 20
266.057939
 30
0.0
 11
1630.000051
 21
266.057939
 31
0.0
  0
ARC
  5
272
100
AcDbEntity
  8
1
  6
Continuous
 62
     7
100
AcDbCircle
 10
1534.000046
 20
259.557939
 30
0.0
 40
2.199999
100
AcDbArc
 50
97.7466
 51
-90.022287
  0
LINE
  5
273
100
AcDbEntity
  8
1
  6
Continuous
 62
     7
100
AcDbLine
 10
1534.000046
 20
259.557939
 30
0.0
 11
1630.000051
 21
259.557939
 31
0.0
  0
LINE
  5
274
100
AcDbEntity
  8
1
  6
CENTER
 62
     7
100
AcDbLine
 10
1508.50005
 20
373.057939
 30
0.0
 11
1508.50005
 21
514.057939
 31
0.0
  0
LINE
  5
275
100
AcDbEntity
  8
1
  6
Continuous
 62
     7
100
AcDbLine
 10
1535.326493
 20
266.057939
 30
0.0
 11
1534.000046
 21
298.157943
 31
0.0
  0
LINE
  5
276
100
AcDbEntity
  8
1
  6
Continuous
 62
     7
100
AcDbLine
 10
1630.000051
 20
324.957939
 30
0.0
 11
1790.000058
 21
324.957939
 31
0.0
  0
LINE
  5
277
100
AcDbEntity
  8
1
  6
Continuous
 62
     7
100
AcDbLine
 10
1790.000058
 20
324.957939
 30
0.0
 11
1790.000058
 21
304.957935
 31
0.0
  0
LINE
  5
278
100
AcDbEntity
  8
1
  6
Continuous
 62
     7
100
AcDbLine
 10
1790.000058
 20
304.957935
 30
0.0
 11
1630.000051
 21
304.957935
 31
0.0
  0
LINE
  5
279
100
AcDbEntity
  8
1
  6
CENTER
 62
     7
100
AcDbLine
 10
1770.00006
 20
292.157936
 30
0.0
 11
1770.00006
 21
340.95794
 31
0.0
  0
LINE
  5
27A
100
AcDbEntity
  8
1
  6
CENTER
 62
     7
100
AcDbLine
 10
1770.00006
 20
292.157936
 30
0.0
 11
1770.00006
 21
340.95794
 31
0.0
  0
LINE
  5
27B
100
AcDbEntity
  8
1
  6
Continuous
 62
     7
100
AcDbLine
 10
1739.400056
 20
324.25794
 30
0.0
 11
1750.600057
 21
338.457937
 31
0.0
  0
ARC
  5
27C
100
AcDbEntity
  8
1
  6
Continuous
 62
     7
100
AcDbCircle
 10
1747.00005
 20
340.95794
 30
0.0
 40
4.500001
100
AcDbArc
 50
-32.280863
 51
35.098974
  0
LINE
  5
27D
100
AcDbEntity
  8
1
  6
Continuous
 62
     7
100
AcDbLine
 10
1743.800054
 20
353.95794
 30
0.0
 11
1630.000051
 21
353.95794
 31
0.0
  0
LINE
  5
27E
100
AcDbEntity
  8
1
  6
Continuous
 62
     7
100
AcDbLine
 10
1743.800054
 20
359.957941
 30
0.0
 11
1630.000051
 21
359.957941
 31
0.0
  0
ARC
  5
27F
100
AcDbEntity
  8
1
  6
Continuous
 62
     7
100
AcDbCircle
 10
1743.800054
 20
356.957941
 30
0.0
 40
3.000001
100
AcDbArc
 50
-89.977713
 51
89.98833
  0
LINE
  5
280
100
AcDbEntity
  8
1
  6
Continuous
 62
     7
100
AcDbLine
 10
1742.300054
 20
353.95794
 30
0.0
 11
1750.600057
 21
343.457937
 31
0.0
  0
LINE
  5
281
100
AcDbEntity
  8
1
  6
Continuous
 62
     7
100
AcDbLine
 10
1750.600057
 20
370.457939
 30
0.0
 11
1742.300054
 21
359.957941
 31
0.0
  0
LINE
  5
282
100
AcDbEntity
  8
1
  6
Continuous
 62
     7
100
AcDbLine
 10
1746.800055
 20
340.95794
 30
0.0
 11
1630.000051
 21
340.95794
 31
0.0
  0
LINE
  5
283
100
AcDbEntity
  8
1
  6
CENTER
 62
     7
100
AcDbLine
 10
1750.000056
 20
356.957941
 30
0.0
 11
1630.000051
 21
356.957941
 31
0.0
  0
ARC
  5
284
100
AcDbEntity
  8
1
  6
Continuous
 62
     7
100
AcDbCircle
 10
1747.00005
 20
372.957936
 30
0.0
 40
4.500001
100
AcDbArc
 50
-32.280863
 51
35.098974
  0
LINE
  5
285
100
AcDbEntity
  8
1
  6
Continuous
 62
     7
100
AcDbLine
 10
1742.300054
 20
385.957941
 30
0.0
 11
1750.600057
 21
375.457938
 31
0.0
  0
LINE
  5
286
100
AcDbEntity
  8
1
  6
Continuous
 62
     7
100
AcDbLine
 10
1746.800055
 20
372.957936
 30
0.0
 11
1630.000051
 21
372.957936
 31
0.0
  0
LINE
  5
287
100
AcDbEntity
  8
1
  6
Continuous
 62
     7
100
AcDbLine
 10
1750.600057
 20
370.457939
 30
0.0
 11
1742.300054
 21
359.957941
 31
0.0
  0
LINE
  5
288
100
AcDbEntity
  8
1
  6
Continuous
 62
     7
100
AcDbLine
 10
1758.500055
 20
304.957935
 30
0.0
 11
1758.500055
 21
298.157943
 31
0.0
  0
LINE
  5
289
100
AcDbEntity
  8
1
  6
Continuous
 62
     7
100
AcDbLine
 10
1758.500055
 20
302.657939
 30
0.0
 11
1630.000051
 21
302.657939
 31
0.0
  0
LINE
  5
28A
100
AcDbEntity
  8
1
  6
Continuous
 62
     7
100
AcDbLine
 10
1758.500055
 20
301.157938
 30
0.0
 11
1630.000051
 21
301.157938
 31
0.0
  0
LINE
  5
28B
100
AcDbEntity
  8
1
  6
Continuous
 62
     7
100
AcDbLine
 10
1758.500055
 20
298.157943
 30
0.0
 11
1630.000051
 21
298.157943
 31
0.0
  0
ARC
  5
28C
100
AcDbEntity
  8
1
  6
Continuous
 62
     7
100
AcDbCircle
 10
1726.40005
 20
262.757934
 30
0.0
 40
1.000002
100
AcDbArc
 50
-179.989383
 51
-95.707291
  0
LINE
  5
28D
100
AcDbEntity
  8
1
  6
Continuous
 62
     7
100
AcDbLine
 10
1725.500051
 20
266.057939
 30
0.0
 11
1725.400054
 21
262.757934
 31
0.0
  0
LINE
  5
28E
100
AcDbEntity
  8
1
  6
Continuous
 62
     7
100
AcDbLine
 10
1726.000055
 20
261.65794
 30
0.0
 11
1630.000051
 21
261.65794
 31
0.0
  0
LINE
  5
28F
100
AcDbEntity
  8
1
  6
Continuous
 62
     7
100
AcDbLine
 10
1726.000055
 20
257.35794
 30
0.0
 11
1630.000051
 21
257.35794
 31
0.0
  0
LINE
  5
290
100
AcDbEntity
  8
1
  6
Continuous
 62
     7
100
AcDbLine
 10
1725.500051
 20
266.057939
 30
0.0
 11
1630.000051
 21
266.057939
 31
0.0
  0
ARC
  5
291
100
AcDbEntity
  8
1
  6
Continuous
 62
     7
100
AcDbCircle
 10
1726.000055
 20
259.557939
 30
0.0
 40
2.199999
100
AcDbArc
 50
-89.977713
 51
82.2534
  0
LINE
  5
292
100
AcDbEntity
  8
1
  6
Continuous
 62
     7
100
AcDbLine
 10
1726.000055
 20
259.557939
 30
0.0
 11
1630.000051
 21
259.557939
 31
0.0
  0
LINE
  5
293
100
AcDbEntity
  8
1
  6
CENTER
 62
     7
100
AcDbLine
 10
1751.500051
 20
373.057939
 30
0.0
 11
1751.500051
 21
514.057939
 31
0.0
  0
LINE
  5
294
100
AcDbEntity
  8
1
  6
Continuous
 62
     7
100
AcDbLine
 10
1724.673608
 20
266.057939
 30
0.0
 11
1726.000055
 21
298.157943
 31
0.0
  0
LINE
  5
295
100
AcDbEntity
  8
1
  6
CENTER
 62
     7
100
AcDbLine
 10
1630.000051
 20
585.177939
 30
0.0
 11
1630.000051
 21
239.915293
 31
0.0
  0
CIRCLE
  5
296
100
AcDbEntity
  8
1
  6
Continuous
 62
     7
100
AcDbCircle
 10
1630.000051
 20
921.396805
 30
0.0
 40
160.0
  0
CIRCLE
  5
297
100
AcDbEntity
  8
1
  6
Continuous
 62
     7
100
AcDbCircle
 10
1630.000051
 20
921.396805
 30
0.0
 40
128.5
  0
CIRCLE
  5
298
100
AcDbEntity
  8
1
  6
Continuous
 62
     7
100
AcDbCircle
 10
1630.000051
 20
921.396805
 30
0.0
 40
107.5
  0
CIRCLE
  5
299
100
AcDbEntity
  8
1
  6
HIDDEN
 62
     7
100
AcDbCircle
 10
1630.000051
 20
921.396805
 30
0.0
 40
110.5
  0
LINE
  5
29A
100
AcDbEntity
  8
1
  6
CENTER
 62
     7
100
AcDbLine
 10
1630.000051
 20
1093.983434
 30
0.0
 11
1630.000051
 21
742.157943
 31
0.0
  0
LINE
  5
29B
100
AcDbEntity
  8
1
  6
CENTER
 62
     7
100
AcDbLine
 10
1448.50193
 20
921.396805
 30
0.0
 11
1813.848465
 21
921.396805
 31
0.0
  0
CIRCLE
  5
29C
100
AcDbEntity
  8
1
  6
PHANTOM
 62
     7
100
AcDbCircle
 10
1630.000051
 20
921.396805
 30
0.0
 40
140.0
  0
CIRCLE
  5
29D
100
AcDbEntity
  8
1
  6
Continuous
 62
     7
100
AcDbCircle
 10
1630.000051
 20
1061.396805
 30
0.0
 40
11.5
  0
CIRCLE
  5
29E
100
AcDbEntity
  8
1
  6
Continuous
 62
     7
100
AcDbCircle
 10
1531.005101
 20
1020.391754
 30
0.0
 40
11.5
  0
CIRCLE
  5
29F
100
AcDbEntity
  8
1
  6
Continuous
 62
     7
100
AcDbCircle
 10
1490.000051
 20
921.396805
 30
0.0
 40
11.5
  0
CIRCLE
  5
2A0
100
AcDbEntity
  8
1
  6
Continuous
 62
     7
100
AcDbCircle
 10
1531.005101
 20
822.401855
 30
0.0
 40
11.5
  0
CIRCLE
  5
2A1
100
AcDbEntity
  8
1
  6
Continuous
 62
     7
100
AcDbCircle
 10
1630.000051
 20
781.396805
 30
0.0
 40
11.5
  0
CIRCLE
  5
2A2
100
AcDbEntity
  8
1
  6
Continuous
 62
     7
100
AcDbCircle
 10
1728.995
 20
822.401855
 30
0.0
 40
11.5
  0
CIRCLE
  5
2A3
100
AcDbEntity
  8
1
  6
Continuous
 62
     7
100
AcDbCircle
 10
1770.000051
 20
921.396805
 30
0.0
 40
11.5
  0
CIRCLE
  5
2A4
100
AcDbEntity
  8
1
  6
Continuous
 62
     7
100
AcDbCircle
 10
1728.995
 20
1020.391754
 30
0.0
 40
11.5
  0
LINE
  5
2A5
100
AcDbEntity
  8
1
  6
CENTER
 62
     7
100
AcDbLine
 10
1740.728999
 20
1032.125753
 30
0.0
 11
1716.548925
 21
1007.945679
 31
0.0
  0
LINE
  5
2A6
100
AcDbEntity
  8
1
  6
CENTER
 62
     7
100
AcDbLine
 10
1716.548925
 20
834.84793
 30
0.0
 11
1740.728999
 21
810.667856
 31
0.0
  0
LINE
  5
2A7
100
AcDbEntity
  8
1
  6
CENTER
 62
     7
100
AcDbLine
 10
1519.271102
 20
810.667856
 30
0.0
 11
1543.451176
 21
834.84793
 31
0.0
  0
LINE
  5
2A8
100
AcDbEntity
  8
1
  6
CENTER
 62
     7
100
AcDbLine
 10
1519.271102
 20
1032.125753
 30
0.0
 11
1543.451176
 21
1007.945679
 31
0.0
  0
LINE
  5
2A9
100
AcDbEntity
  8
1
  6
CENTER
 62
     7
100
AcDbLine
 10
2077.500065
 20
328.357936
 30
0.0
 11
2077.500065
 21
328.457938
 31
0.0
  0
LINE
  5
2AA
100
AcDbEntity
  8
1
  6
Continuous
 62
     7
100
AcDbLine
 10
2077.500065
 20
572.957945
 30
0.0
 11
1917.500058
 21
572.957945
 31
0.0
  0
LINE
  5
2AB
100
AcDbEntity
  8
1
  6
Continuous
 62
     7
100
AcDbLine
 10
1917.500058
 20
572.957945
 30
0.0
 11
1917.500058
 21
592.957943
 31
0.0
  0
LINE
  5
2AC
100
AcDbEntity
  8
1
  6
Continuous
 62
     7
100
AcDbLine
 10
1917.500058
 20
592.957943
 30
0.0
 11
2077.500065
 21
592.957943
 31
0.0
  0
LINE
  5
2AD
100
AcDbEntity
  8
1
  6
Continuous
 62
     7
100
AcDbLine
 10
1949.000061
 20
592.957943
 30
0.0
 11
1949.000061
 21
598.157943
 31
0.0
  0
LINE
  5
2AE
100
AcDbEntity
  8
1
  6
Continuous
 62
     7
100
AcDbLine
 10
1949.000061
 20
598.157943
 30
0.0
 11
2077.500065
 21
598.157943
 31
0.0
  0
LINE
  5
2AF
100
AcDbEntity
  8
1
  6
Continuous
 62
     7
100
AcDbLine
 10
1949.000061
 20
595.157942
 30
0.0
 11
2077.500065
 21
595.157942
 31
0.0
  0
LINE
  5
2B0
100
AcDbEntity
  8
1
  6
Continuous
 62
     7
100
AcDbLine
 10
1949.000061
 20
594.357941
 30
0.0
 11
2077.500065
 21
594.357941
 31
0.0
  0
LINE
  5
2B1
100
AcDbEntity
  8
1
  6
CENTER
 62
     7
100
AcDbLine
 10
1937.500056
 20
605.757943
 30
0.0
 11
1937.500056
 21
556.957944
 31
0.0
  0
ARC
  5
2B2
100
AcDbEntity
  8
1
  6
Continuous
 62
     7
100
AcDbCircle
 10
1960.500066
 20
556.957944
 30
0.0
 40
4.500001
100
AcDbArc
 50
147.70852
 51
-144.911644
  0
LINE
  5
2B3
100
AcDbEntity
  8
1
  6
Continuous
 62
     7
100
AcDbLine
 10
1963.700062
 20
543.957939
 30
0.0
 11
2077.500065
 21
543.957939
 31
0.0
  0
LINE
  5
2B4
100
AcDbEntity
  8
1
  6
Continuous
 62
     7
100
AcDbLine
 10
1963.700062
 20
537.957943
 30
0.0
 11
2077.500065
 21
537.957943
 31
0.0
  0
ARC
  5
2B5
100
AcDbEntity
  8
1
  6
Continuous
 62
     7
100
AcDbCircle
 10
1963.700062
 20
540.957944
 30
0.0
 40
3.000001
100
AcDbArc
 50
90.01167
 51
-90.022287
  0
LINE
  5
2B6
100
AcDbEntity
  8
1
  6
Continuous
 62
     7
100
AcDbLine
 10
1965.200062
 20
543.957939
 30
0.0
 11
1956.900058
 21
554.457942
 31
0.0
  0
LINE
  5
2B7
100
AcDbEntity
  8
1
  6
Continuous
 62
     7
100
AcDbLine
 10
1956.900058
 20
527.45794
 30
0.0
 11
1965.200062
 21
537.957943
 31
0.0
  0
LINE
  5
2B8
100
AcDbEntity
  8
1
  6
Continuous
 62
     7
100
AcDbLine
 10
1960.700061
 20
556.957944
 30
0.0
 11
2077.500065
 21
556.957944
 31
0.0
  0
LINE
  5
2B9
100
AcDbEntity
  8
1
  6
CENTER
 62
     7
100
AcDbLine
 10
1957.50006
 20
540.957944
 30
0.0
 11
2077.500065
 21
540.957944
 31
0.0
  0
ARC
  5
2BA
100
AcDbEntity
  8
1
  6
Continuous
 62
     7
100
AcDbCircle
 10
1960.500066
 20
524.957937
 30
0.0
 40
4.500001
100
AcDbArc
 50
147.70852
 51
-144.911644
  0
LINE
  5
2BB
100
AcDbEntity
  8
1
  6
Continuous
 62
     7
100
AcDbLine
 10
1965.200062
 20
511.957943
 30
0.0
 11
1956.900058
 21
522.45794
 31
0.0
  0
LINE
  5
2BC
100
AcDbEntity
  8
1
  6
Continuous
 62
     7
100
AcDbLine
 10
1960.700061
 20
524.957937
 30
0.0
 11
2077.500065
 21
524.957937
 31
0.0
  0
LINE
  5
2BD
100
AcDbEntity
  8
1
  6
Continuous
 62
     7
100
AcDbLine
 10
1956.900058
 20
527.45794
 30
0.0
 11
1965.200062
 21
537.957943
 31
0.0
  0
LINE
  5
2BE
100
AcDbEntity
  8
1
  6
CENTER
 62
     7
100
AcDbLine
 10
1937.500056
 20
560.657944
 30
0.0
 11
1937.500056
 21
605.757943
 31
0.0
  0
LINE
  5
2BF
100
AcDbEntity
  8
1
  6
Continuous
 62
     7
100
AcDbLine
 10
2077.500065
 20
572.957945
 30
0.0
 11
2237.500072
 21
572.957945
 31
0.0
  0
LINE
  5
2C0
100
AcDbEntity
  8
1
  6
Continuous
 62
     7
100
AcDbLine
 10
2237.500072
 20
572.957945
 30
0.0
 11
2237.500072
 21
592.957943
 31
0.0
  0
LINE
  5
2C1
100
AcDbEntity
  8
1
  6
Continuous
 62
     7
100
AcDbLine
 10
2237.500072
 20
592.957943
 30
0.0
 11
2077.500065
 21
592.957943
 31
0.0
  0
LINE
  5
2C2
100
AcDbEntity
  8
1
  6
Continuous
 62
     7
100
AcDbLine
 10
2206.000069
 20
592.957943
 30
0.0
 11
2206.000069
 21
598.157943
 31
0.0
  0
LINE
  5
2C3
100
AcDbEntity
  8
1
  6
Continuous
 62
     7
100
AcDbLine
 10
2206.000069
 20
598.157943
 30
0.0
 11
2077.500065
 21
598.157943
 31
0.0
  0
LINE
  5
2C4
100
AcDbEntity
  8
1
  6
Continuous
 62
     7
100
AcDbLine
 10
2206.000069
 20
595.157942
 30
0.0
 11
2077.500065
 21
595.157942
 31
0.0
  0
LINE
  5
2C5
100
AcDbEntity
  8
1
  6
Continuous
 62
     7
100
AcDbLine
 10
2206.000069
 20
594.357941
 30
0.0
 11
2077.500065
 21
594.357941
 31
0.0
  0
ARC
  5
2C6
100
AcDbEntity
  8
1
  6
Continuous
 62
     7
100
AcDbCircle
 10
2194.500064
 20
556.957944
 30
0.0
 40
4.500001
100
AcDbArc
 50
-35.088356
 51
32.29148
  0
LINE
  5
2C7
100
AcDbEntity
  8
1
  6
Continuous
 62
     7
100
AcDbLine
 10
2191.300068
 20
543.957939
 30
0.0
 11
2077.500065
 21
543.957939
 31
0.0
  0
LINE
  5
2C8
100
AcDbEntity
  8
1
  6
Continuous
 62
     7
100
AcDbLine
 10
2191.300068
 20
537.957943
 30
0.0
 11
2077.500065
 21
537.957943
 31
0.0
  0
ARC
  5
2C9
100
AcDbEntity
  8
1
  6
Continuous
 62
     7
100
AcDbCircle
 10
2191.300068
 20
540.957944
 30
0.0
 40
3.000001
100
AcDbArc
 50
-89.977713
 51
89.98833
  0
LINE
  5
2CA
100
AcDbEntity
  8
1
  6
Continuous
 62
     7
100
AcDbLine
 10
2189.800068
 20
543.957939
 30
0.0
 11
2198.100072
 21
554.457942
 31
0.0
  0
LINE
  5
2CB
100
AcDbEntity
  8
1
  6
Continuous
 62
     7
100
AcDbLine
 10
2198.100072
 20
527.45794
 30
0.0
 11
2189.800068
 21
537.957943
 31
0.0
  0
LINE
  5
2CC
100
AcDbEntity
  8
1
  6
Continuous
 62
     7
100
AcDbLine
 10
2194.300069
 20
556.957944
 30
0.0
 11
2077.500065
 21
556.957944
 31
0.0
  0
LINE
  5
2CD
100
AcDbEntity
  8
1
  6
CENTER
 62
     7
100
AcDbLine
 10
2197.50007
 20
540.957944
 30
0.0
 11
2077.500065
 21
540.957944
 31
0.0
  0
ARC
  5
2CE
100
AcDbEntity
  8
1
  6
Continuous
 62
     7
100
AcDbCircle
 10
2194.500064
 20
524.957937
 30
0.0
 40
4.500001
100
AcDbArc
 50
-35.088356
 51
32.29148
  0
LINE
  5
2CF
100
AcDbEntity
  8
1
  6
Continuous
 62
     7
100
AcDbLine
 10
2189.800068
 20
511.957943
 30
0.0
 11
2198.100072
 21
522.45794
 31
0.0
  0
LINE
  5
2D0
100
AcDbEntity
  8
1
  6
Continuous
 62
     7
100
AcDbLine
 10
2194.300069
 20
524.957937
 30
0.0
 11
2077.500065
 21
524.957937
 31
0.0
  0
LINE
  5
2D1
100
AcDbEntity
  8
1
  6
Continuous
 62
     7
100
AcDbLine
 10
2198.100072
 20
527.45794
 30
0.0
 11
2189.800068
 21
537.957943
 31
0.0
  0
LINE
  5
2D2
100
AcDbEntity
  8
1
  6
Continuous
 62
     7
100
AcDbLine
 10
2187.452182
 20
572.957945
 30
0.0
 11
2198.100072
 21
559.457941
 31
0.0
  0
LINE
  5
2D3
100
AcDbEntity
  8
1
  6
Continuous
 62
     7
100
AcDbLine
 10
1967.547948
 20
572.957945
 30
0.0
 11
1956.900058
 21
559.457941
 31
0.0
  0
LINE
  5
2D4
100
AcDbEntity
  8
1
  6
CENTER
 62
     7
100
AcDbLine
 10
2217.500074
 20
605.757943
 30
0.0
 11
2217.500074
 21
556.957944
 31
0.0
  0
LINE
  5
2D5
100
AcDbEntity
  8
1
  6
CENTER
 62
     7
100
AcDbLine
 10
2217.500074
 20
560.657944
 30
0.0
 11
2217.500074
 21
605.757943
 31
0.0
  0
LINE
  5
2D6
100
AcDbEntity
  8
1
  6
Continuous
 62
     7
100
AcDbLine
 10
2077.500065
 20
324.957939
 30
0.0
 11
1917.500058
 21
324.957939
 31
0.0
  0
LINE
  5
2D7
100
AcDbEntity
  8
1
  6
Continuous
 62
     7
100
AcDbLine
 10
1917.500058
 20
324.957939
 30
0.0
 11
1917.500058
 21
304.957935
 31
0.0
  0
LINE
  5
2D8
100
AcDbEntity
  8
1
  6
Continuous
 62
     7
100
AcDbLine
 10
1917.500058
 20
304.957935
 30
0.0
 11
2077.500065
 21
304.957935
 31
0.0
  0
LINE
  5
2D9
100
AcDbEntity
  8
1
  6
CENTER
 62
     7
100
AcDbLine
 10
1937.500056
 20
292.157936
 30
0.0
 11
1937.500056
 21
340.95794
 31
0.0
  0
LINE
  5
2DA
100
AcDbEntity
  8
1
  6
CENTER
 62
     7
100
AcDbLine
 10
1937.500056
 20
292.157936
 30
0.0
 11
1937.500056
 21
340.95794
 31
0.0
  0
LINE
  5
2DB
100
AcDbEntity
  8
1
  6
Continuous
 62
     7
100
AcDbLine
 10
1968.10006
 20
324.25794
 30
0.0
 11
1956.900058
 21
338.457937
 31
0.0
  0
ARC
  5
2DC
100
AcDbEntity
  8
1
  6
Continuous
 62
     7
100
AcDbCircle
 10
1960.500066
 20
340.95794
 30
0.0
 40
4.500001
100
AcDbArc
 50
144.901026
 51
-147.719137
  0
LINE
  5
2DD
100
AcDbEntity
  8
1
  6
Continuous
 62
     7
100
AcDbLine
 10
1963.700062
 20
353.95794
 30
0.0
 11
2077.500065
 21
353.95794
 31
0.0
  0
LINE
  5
2DE
100
AcDbEntity
  8
1
  6
Continuous
 62
     7
100
AcDbLine
 10
1963.700062
 20
359.957941
 30
0.0
 11
2077.500065
 21
359.957941
 31
0.0
  0
ARC
  5
2DF
100
AcDbEntity
  8
1
  6
Continuous
 62
     7
100
AcDbCircle
 10
1963.700062
 20
356.957941
 30
0.0
 40
3.000001
100
AcDbArc
 50
90.01167
 51
-90.022287
  0
LINE
  5
2E0
100
AcDbEntity
  8
1
  6
Continuous
 62
     7
100
AcDbLine
 10
1965.200062
 20
353.95794
 30
0.0
 11
1956.900058
 21
343.457937
 31
0.0
  0
LINE
  5
2E1
100
AcDbEntity
  8
1
  6
Continuous
 62
     7
100
AcDbLine
 10
1956.900058
 20
370.457939
 30
0.0
 11
1965.200062
 21
359.957941
 31
0.0
  0
LINE
  5
2E2
100
AcDbEntity
  8
1
  6
Continuous
 62
     7
100
AcDbLine
 10
1960.700061
 20
340.95794
 30
0.0
 11
2077.500065
 21
340.95794
 31
0.0
  0
LINE
  5
2E3
100
AcDbEntity
  8
1
  6
CENTER
 62
     7
100
AcDbLine
 10
1957.50006
 20
356.957941
 30
0.0
 11
2077.500065
 21
356.957941
 31
0.0
  0
ARC
  5
2E4
100
AcDbEntity
  8
1
  6
Continuous
 62
     7
100
AcDbCircle
 10
1960.500066
 20
372.957936
 30
0.0
 40
4.500001
100
AcDbArc
 50
144.901026
 51
-147.719137
  0
LINE
  5
2E5
100
AcDbEntity
  8
1
  6
Continuous
 62
     7
100
AcDbLine
 10
1965.200062
 20
385.957941
 30
0.0
 11
1956.900058
 21
375.457938
 31
0.0
  0
LINE
  5
2E6
100
AcDbEntity
  8
1
  6
Continuous
 62
     7
100
AcDbLine
 10
1960.700061
 20
372.957936
 30
0.0
 11
2077.500065
 21
372.957936
 31
0.0
  0
LINE
  5
2E7
100
AcDbEntity
  8
1
  6
Continuous
 62
     7
100
AcDbLine
 10
1956.900058
 20
370.457939
 30
0.0
 11
1965.200062
 21
359.957941
 31
0.0
  0
LINE
  5
2E8
100
AcDbEntity
  8
1
  6
Continuous
 62
     7
100
AcDbLine
 10
1949.000061
 20
304.957935
 30
0.0
 11
1949.000061
 21
298.157943
 31
0.0
  0
LINE
  5
2E9
100
AcDbEntity
  8
1
  6
Continuous
 62
     7
100
AcDbLine
 10
1949.000061
 20
302.657939
 30
0.0
 11
2077.500065
 21
302.657939
 31
0.0
  0
LINE
  5
2EA
100
AcDbEntity
  8
1
  6
Continuous
 62
     7
100
AcDbLine
 10
1949.000061
 20
301.157938
 30
0.0
 11
2077.500065
 21
301.157938
 31
0.0
  0
LINE
  5
2EB
100
AcDbEntity
  8
1
  6
Continuous
 62
     7
100
AcDbLine
 10
1949.000061
 20
298.157943
 30
0.0
 11
2077.500065
 21
298.157943
 31
0.0
  0
ARC
  5
2EC
100
AcDbEntity
  8
1
  6
Continuous
 62
     7
100
AcDbCircle
 10
1981.100065
 20
262.757934
 30
0.0
 40
1.000002
100
AcDbArc
 50
-84.292709
 51
-0.010617
  0
LINE
  5
2ED
100
AcDbEntity
  8
1
  6
Continuous
 62
     7
100
AcDbLine
 10
1982.000065
 20
266.057939
 30
0.0
 11
1982.100062
 21
262.757934
 31
0.0
  0
LINE
  5
2EE
100
AcDbEntity
  8
1
  6
Continuous
 62
     7
100
AcDbLine
 10
1981.500061
 20
261.65794
 30
0.0
 11
2077.500065
 21
261.65794
 31
0.0
  0
LINE
  5
2EF
100
AcDbEntity
  8
1
  6
Continuous
 62
     7
100
AcDbLine
 10
1981.500061
 20
257.35794
 30
0.0
 11
2077.500065
 21
257.35794
 31
0.0
  0
LINE
  5
2F0
100
AcDbEntity
  8
1
  6
Continuous
 62
     7
100
AcDbLine
 10
1982.000065
 20
266.057939
 30
0.0
 11
2077.500065
 21
266.057939
 31
0.0
  0
ARC
  5
2F1
100
AcDbEntity
  8
1
  6
Continuous
 62
     7
100
AcDbCircle
 10
1981.500061
 20
259.557939
 30
0.0
 40
2.199999
100
AcDbArc
 50
97.7466
 51
-90.022287
  0
LINE
  5
2F2
100
AcDbEntity
  8
1
  6
Continuous
 62
     7
100
AcDbLine
 10
1981.500061
 20
259.557939
 30
0.0
 11
2077.500065
 21
259.557939
 31
0.0
  0
LINE
  5
2F3
100
AcDbEntity
  8
1
  6
Continuous
 62
     7
100
AcDbLine
 10
1982.826507
 20
266.057939
 30
0.0
 11
1981.500061
 21
298.157943
 31
0.0
  0
LINE
  5
2F4
100
AcDbEntity
  8
1
  6
Continuous
 62
     7
100
AcDbLine
 10
2077.500065
 20
324.957939
 30
0.0
 11
2237.500072
 21
324.957939
 31
0.0
  0
LINE
  5
2F5
100
AcDbEntity
  8
1
  6
Continuous
 62
     7
100
AcDbLine
 10
2237.500072
 20
324.957939
 30
0.0
 11
2237.500072
 21
304.957935
 31
0.0
  0
LINE
  5
2F6
100
AcDbEntity
  8
1
  6
Continuous
 62
     7
100
AcDbLine
 10
2237.500072
 20
304.957935
 30
0.0
 11
2077.500065
 21
304.957935
 31
0.0
  0
LINE
  5
2F7
100
AcDbEntity
  8
1
  6
CENTER
 62
     7
100
AcDbLine
 10
2217.500074
 20
292.157936
 30
0.0
 11
2217.500074
 21
340.95794
 31
0.0
  0
LINE
  5
2F8
100
AcDbEntity
  8
1
  6
CENTER
 62
     7
100
AcDbLine
 10
2217.500074
 20
292.157936
 30
0.0
 11
2217.500074
 21
340.95794
 31
0.0
  0
LINE
  5
2F9
100
AcDbEntity
  8
1
  6
Continuous
 62
     7
100
AcDbLine
 10
2186.90007
 20
324.25794
 30
0.0
 11
2198.100072
 21
338.457937
 31
0.0
  0
ARC
  5
2FA
100
AcDbEntity
  8
1
  6
Continuous
 62
     7
100
AcDbCircle
 10
2194.500064
 20
340.95794
 30
0.0
 40
4.500001
100
AcDbArc
 50
-32.280863
 51
35.098974
  0
LINE
  5
2FB
100
AcDbEntity
  8
1
  6
Continuous
 62
     7
100
AcDbLine
 10
2191.300068
 20
353.95794
 30
0.0
 11
2077.500065
 21
353.95794
 31
0.0
  0
LINE
  5
2FC
100
AcDbEntity
  8
1
  6
Continuous
 62
     7
100
AcDbLine
 10
2191.300068
 20
359.957941
 30
0.0
 11
2077.500065
 21
359.957941
 31
0.0
  0
ARC
  5
2FD
100
AcDbEntity
  8
1
  6
Continuous
 62
     7
100
AcDbCircle
 10
2191.300068
 20
356.957941
 30
0.0
 40
3.000001
100
AcDbArc
 50
-89.977713
 51
89.98833
  0
LINE
  5
2FE
100
AcDbEntity
  8
1
  6
Continuous
 62
     7
100
AcDbLine
 10
2189.800068
 20
353.95794
 30
0.0
 11
2198.100072
 21
343.457937
 31
0.0
  0
LINE
  5
2FF
100
AcDbEntity
  8
1
  6
Continuous
 62
     7
100
AcDbLine
 10
2198.100072
 20
370.457939
 30
0.0
 11
2189.800068
 21
359.957941
 31
0.0
  0
LINE
  5
300
100
AcDbEntity
  8
1
  6
Continuous
 62
     7
100
AcDbLine
 10
2194.300069
 20
340.95794
 30
0.0
 11
2077.500065
 21
340.95794
 31
0.0
  0
LINE
  5
301
100
AcDbEntity
  8
1
  6
CENTER
 62
     7
100
AcDbLine
 10
2197.50007
 20
356.957941
 30
0.0
 11
2077.500065
 21
356.957941
 31
0.0
  0
ARC
  5
302
100
AcDbEntity
  8
1
  6
Continuous
 62
     7
100
AcDbCircle
 10
2194.500064
 20
372.957936
 30
0.0
 40
4.500001
100
AcDbArc
 50
-32.280863
 51
35.098974
  0
LINE
  5
303
100
AcDbEntity
  8
1
  6
Continuous
 62
     7
100
AcDbLine
 10
2189.800068
 20
385.957941
 30
0.0
 11
2198.100072
 21
375.457938
 31
0.0
  0
LINE
  5
304
100
AcDbEntity
  8
1
  6
Continuous
 62
     7
100
AcDbLine
 10
2194.300069
 20
372.957936
 30
0.0
 11
2077.500065
 21
372.957936
 31
0.0
  0
LINE
  5
305
100
AcDbEntity
  8
1
  6
Continuous
 62
     7
100
AcDbLine
 10
2198.100072
 20
370.457939
 30
0.0
 11
2189.800068
 21
359.957941
 31
0.0
  0
LINE
  5
306
100
AcDbEntity
  8
1
  6
Continuous
 62
     7
100
AcDbLine
 10
2206.000069
 20
304.957935
 30
0.0
 11
2206.000069
 21
298.157943
 31
0.0
  0
LINE
  5
307
100
AcDbEntity
  8
1
  6
Continuous
 62
     7
100
AcDbLine
 10
2206.000069
 20
302.657939
 30
0.0
 11
2077.500065
 21
302.657939
 31
0.0
  0
LINE
  5
308
100
AcDbEntity
  8
1
  6
Continuous
 62
     7
100
AcDbLine
 10
2206.000069
 20
301.157938
 30
0.0
 11
2077.500065
 21
301.157938
 31
0.0
  0
LINE
  5
309
100
AcDbEntity
  8
1
  6
Continuous
 62
     7
100
AcDbLine
 10
2206.000069
 20
298.157943
 30
0.0
 11
2077.500065
 21
298.157943
 31
0.0
  0
ARC
  5
30A
100
AcDbEntity
  8
1
  6
Continuous
 62
     7
100
AcDbCircle
 10
2173.900065
 20
262.757934
 30
0.0
 40
1.000002
100
AcDbArc
 50
-179.989383
 51
-95.707291
  0
LINE
  5
30B
100
AcDbEntity
  8
1
  6
Continuous
 62
     7
100
AcDbLine
 10
2173.000066
 20
266.057939
 30
0.0
 11
2172.900068
 21
262.757934
 31
0.0
  0
LINE
  5
30C
100
AcDbEntity
  8
1
  6
Continuous
 62
     7
100
AcDbLine
 10
2173.500069
 20
261.65794
 30
0.0
 11
2077.500065
 21
261.65794
 31
0.0
  0
LINE
  5
30D
100
AcDbEntity
  8
1
  6
Continuous
 62
     7
100
AcDbLine
 10
2173.500069
 20
257.35794
 30
0.0
 11
2077.500065
 21
257.35794
 31
0.0
  0
LINE
  5
30E
100
AcDbEntity
  8
1
  6
Continuous
 62
     7
100
AcDbLine
 10
2173.000066
 20
266.057939
 30
0.0
 11
2077.500065
 21
266.057939
 31
0.0
  0
ARC
  5
30F
100
AcDbEntity
  8
1
  6
Continuous
 62
     7
100
AcDbCircle
 10
2173.500069
 20
259.557939
 30
0.0
 40
2.199999
100
AcDbArc
 50
-89.977713
 51
82.2534
  0
LINE
  5
310
100
AcDbEntity
  8
1
  6
Continuous
 62
     7
100
AcDbLine
 10
2173.500069
 20
259.557939
 30
0.0
 11
2077.500065
 21
259.557939
 31
0.0
  0
LINE
  5
311
100
AcDbEntity
  8
1
  6
Continuous
 62
     7
100
AcDbLine
 10
2172.173623
 20
266.057939
 30
0.0
 11
2173.500069
 21
298.157943
 31
0.0
  0
LINE
  5
312
100
AcDbEntity
  8
1
  6
CENTER
 62
     7
100
AcDbLine
 10
2199.000065
 20
373.057939
 30
0.0
 11
2199.000065
 21
524.957937
 31
0.0
  0
LINE
  5
313
100
AcDbEntity
  8
1
  6
CENTER
 62
     7
100
AcDbLine
 10
1956.000065
 20
373.057939
 30
0.0
 11
1956.000065
 21
524.957937
 31
0.0
  0
LINE
  5
314
100
AcDbEntity
  8
1
  6
CENTER
 62
     7
100
AcDbLine
 10
2077.500065
 20
615.177939
 30
0.0
 11
2077.500065
 21
241.163004
 31
0.0
  0
CIRCLE
  5
315
100
AcDbEntity
  8
1
  6
Continuous
 62
     7
100
AcDbCircle
 10
2077.500065
 20
951.396805
 30
0.0
 40
160.0
  0
CIRCLE
  5
316
100
AcDbEntity
  8
1
  6
Continuous
 62
     7
100
AcDbCircle
 10
2077.500065
 20
951.396805
 30
0.0
 40
128.5
  0
CIRCLE
  5
317
100
AcDbEntity
  8
1
  6
Continuous
 62
     7
100
AcDbCircle
 10
2077.500065
 20
951.396805
 30
0.0
 40
107.5
  0
CIRCLE
  5
318
100
AcDbEntity
  8
1
  6
HIDDEN
 62
     7
100
AcDbCircle
 10
2077.500065
 20
951.396805
 30
0.0
 40
110.5
  0
LINE
  5
319
100
AcDbEntity
  8
1
  6
CENTER
 62
     7
100
AcDbLine
 10
2077.500065
 20
1123.983434
 30
0.0
 11
2077.500065
 21
772.157943
 31
0.0
  0
LINE
  5
31A
100
AcDbEntity
  8
1
  6
CENTER
 62
     7
100
AcDbLine
 10
1896.001944
 20
951.396805
 30
0.0
 11
2261.348479
 21
951.396805
 31
0.0
  0
CIRCLE
  5
31B
100
AcDbEntity
  8
1
  6
PHANTOM
 62
     7
100
AcDbCircle
 10
2077.500065
 20
951.396805
 30
0.0
 40
140.0
  0
CIRCLE
  5
31C
100
AcDbEntity
  8
1
  6
Continuous
 62
     7
100
AcDbCircle
 10
2077.500065
 20
1091.396805
 30
0.0
 40
11.5
  0
CIRCLE
  5
31D
100
AcDbEntity
  8
1
  6
Continuous
 62
     7
100
AcDbCircle
 10
1978.505116
 20
1050.391754
 30
0.0
 40
11.5
  0
CIRCLE
  5
31E
100
AcDbEntity
  8
1
  6
Continuous
 62
     7
100
AcDbCircle
 10
1937.500065
 20
951.396805
 30
0.0
 40
11.5
  0
CIRCLE
  5
31F
100
AcDbEntity
  8
1
  6
Continuous
 62
     7
100
AcDbCircle
 10
1978.505116
 20
852.401855
 30
0.0
 40
11.5
  0
CIRCLE
  5
320
100
AcDbEntity
  8
1
  6
Continuous
 62
     7
100
AcDbCircle
 10
2077.500065
 20
811.396805
 30
0.0
 40
11.5
  0
CIRCLE
  5
321
100
AcDbEntity
  8
1
  6
Continuous
 62
     7
100
AcDbCircle
 10
2176.495014
 20
852.401855
 30
0.0
 40
11.5
  0
CIRCLE
  5
322
100
AcDbEntity
  8
1
  6
Continuous
 62
     7
100
AcDbCircle
 10
2217.500065
 20
951.396805
 30
0.0
 40
11.5
  0
CIRCLE
  5
323
100
AcDbEntity
  8
1
  6
Continuous
 62
     7
100
AcDbCircle
 10
2176.495014
 20
1050.391754
 30
0.0
 40
11.5
  0
LINE
  5
324
100
AcDbEntity
  8
1
  6
CENTER
 62
     7
100
AcDbLine
 10
2188.229014
 20
1062.125753
 30
0.0
 11
2164.04894
 21
1037.945679
 31
0.0
  0
LINE
  5
325
100
AcDbEntity
  8
1
  6
CENTER
 62
     7
100
AcDbLine
 10
2164.04894
 20
864.84793
 30
0.0
 11
2188.229014
 21
840.667856
 31
0.0
  0
LINE
  5
326
100
AcDbEntity
  8
1
  6
CENTER
 62
     7
100
AcDbLine
 10
1966.771116
 20
840.667856
 30
0.0
 11
1990.951191
 21
864.84793
 31
0.0
  0
LINE
  5
327
100
AcDbEntity
  8
1
  6
CENTER
 62
     7
100
AcDbLine
 10
1966.771116
 20
1062.125753
 30
0.0
 11
1990.95119
 21
1037.945679
 31
0.0
  0
LINE
  5
328
100
AcDbEntity
  8
1
  6
CENTER
 62
     7
100
AcDbLine
 10
2525.000079
 20
348.357936
 30
0.0
 11
2525.000079
 21
348.457938
 31
0.0
  0
LINE
  5
329
100
AcDbEntity
  8
1
  6
Continuous
 62
     7
100
AcDbLine
 10
2525.000079
 20
592.957945
 30
0.0
 11
2365.000072
 21
592.957945
 31
0.0
  0
LINE
  5
32A
100
AcDbEntity
  8
1
  6
Continuous
 62
     7
100
AcDbLine
 10
2365.000072
 20
592.957945
 30
0.0
 11
2365.000072
 21
612.957943
 31
0.0
  0
LINE
  5
32B
100
AcDbEntity
  8
1
  6
Continuous
 62
     7
100
AcDbLine
 10
2365.000072
 20
612.957943
 30
0.0
 11
2525.000079
 21
612.957943
 31
0.0
  0
LINE
  5
32C
100
AcDbEntity
  8
1
  6
Continuous
 62
     7
100
AcDbLine
 10
2396.500075
 20
612.957943
 30
0.0
 11
2396.500075
 21
618.157943
 31
0.0
  0
LINE
  5
32D
100
AcDbEntity
  8
1
  6
Continuous
 62
     7
100
AcDbLine
 10
2396.500075
 20
618.157943
 30
0.0
 11
2525.000079
 21
618.157943
 31
0.0
  0
LINE
  5
32E
100
AcDbEntity
  8
1
  6
Continuous
 62
     7
100
AcDbLine
 10
2396.500075
 20
615.157942
 30
0.0
 11
2525.000079
 21
615.157942
 31
0.0
  0
LINE
  5
32F
100
AcDbEntity
  8
1
  6
Continuous
 62
     7
100
AcDbLine
 10
2396.500075
 20
614.357941
 30
0.0
 11
2525.000079
 21
614.357941
 31
0.0
  0
LINE
  5
330
100
AcDbEntity
  8
1
  6
CENTER
 62
     7
100
AcDbLine
 10
2385.00007
 20
625.757943
 30
0.0
 11
2385.00007
 21
576.957944
 31
0.0
  0
ARC
  5
331
100
AcDbEntity
  8
1
  6
Continuous
 62
     7
100
AcDbCircle
 10
2408.00008
 20
576.957944
 30
0.0
 40
4.500001
100
AcDbArc
 50
147.70852
 51
-144.911644
  0
LINE
  5
332
100
AcDbEntity
  8
1
  6
Continuous
 62
     7
100
AcDbLine
 10
2411.200076
 20
563.957939
 30
0.0
 11
2525.000079
 21
563.957939
 31
0.0
  0
LINE
  5
333
100
AcDbEntity
  8
1
  6
Continuous
 62
     7
100
AcDbLine
 10
2411.200076
 20
557.957943
 30
0.0
 11
2525.000079
 21
557.957943
 31
0.0
  0
ARC
  5
334
100
AcDbEntity
  8
1
  6
Continuous
 62
     7
100
AcDbCircle
 10
2411.200076
 20
560.957944
 30
0.0
 40
3.000001
100
AcDbArc
 50
90.01167
 51
-90.022287
  0
LINE
  5
335
100
AcDbEntity
  8
1
  6
Continuous
 62
     7
100
AcDbLine
 10
2412.700077
 20
563.957939
 30
0.0
 11
2404.400073
 21
574.457942
 31
0.0
  0
LINE
  5
336
100
AcDbEntity
  8
1
  6
Continuous
 62
     7
100
AcDbLine
 10
2404.400073
 20
547.45794
 30
0.0
 11
2412.700077
 21
557.957943
 31
0.0
  0
LINE
  5
337
100
AcDbEntity
  8
1
  6
Continuous
 62
     7
100
AcDbLine
 10
2408.200075
 20
576.957944
 30
0.0
 11
2525.000079
 21
576.957944
 31
0.0
  0
LINE
  5
338
100
AcDbEntity
  8
1
  6
CENTER
 62
     7
100
AcDbLine
 10
2405.000074
 20
560.957944
 30
0.0
 11
2525.000079
 21
560.957944
 31
0.0
  0
ARC
  5
339
100
AcDbEntity
  8
1
  6
Continuous
 62
     7
100
AcDbCircle
 10
2408.00008
 20
544.957937
 30
0.0
 40
4.500001
100
AcDbArc
 50
147.70852
 51
-144.911644
  0
LINE
  5
33A
100
AcDbEntity
  8
1
  6
Continuous
 62
     7
100
AcDbLine
 10
2412.700077
 20
531.957943
 30
0.0
 11
2404.400073
 21
542.45794
 31
0.0
  0
LINE
  5
33B
100
AcDbEntity
  8
1
  6
Continuous
 62
     7
100
AcDbLine
 10
2408.200075
 20
544.957937
 30
0.0
 11
2525.000079
 21
544.957937
 31
0.0
  0
LINE
  5
33C
100
AcDbEntity
  8
1
  6
Continuous
 62
     7
100
AcDbLine
 10
2404.400073
 20
547.45794
 30
0.0
 11
2412.700077
 21
557.957943
 31
0.0
  0
LINE
  5
33D
100
AcDbEntity
  8
1
  6
CENTER
 62
     7
100
AcDbLine
 10
2385.00007
 20
580.657944
 30
0.0
 11
2385.00007
 21
625.757943
 31
0.0
  0
LINE
  5
33E
100
AcDbEntity
  8
1
  6
Continuous
 62
     7
100
AcDbLine
 10
2525.000079
 20
592.957945
 30
0.0
 11
2685.000087
 21
592.957945
 31
0.0
  0
LINE
  5
33F
100
AcDbEntity
  8
1
  6
Continuous
 62
     7
100
AcDbLine
 10
2685.000087
 20
592.957945
 30
0.0
 11
2685.000087
 21
612.957943
 31
0.0
  0
LINE
  5
340
100
AcDbEntity
  8
1
  6
Continuous
 62
     7
100
AcDbLine
 10
2685.000087
 20
612.957943
 30
0.0
 11
2525.000079
 21
612.957943
 31
0.0
  0
LINE
  5
341
100
AcDbEntity
  8
1
  6
Continuous
 62
     7
100
AcDbLine
 10
2653.500084
 20
612.957943
 30
0.0
 11
2653.500084
 21
618.157943
 31
0.0
  0
LINE
  5
342
100
AcDbEntity
  8
1
  6
Continuous
 62
     7
100
AcDbLine
 10
2653.500084
 20
618.157943
 30
0.0
 11
2525.000079
 21
618.157943
 31
0.0
  0
LINE
  5
343
100
AcDbEntity
  8
1
  6
Continuous
 62
     7
100
AcDbLine
 10
2653.500084
 20
615.157942
 30
0.0
 11
2525.000079
 21
615.157942
 31
0.0
  0
LINE
  5
344
100
AcDbEntity
  8
1
  6
Continuous
 62
     7
100
AcDbLine
 10
2653.500084
 20
614.357941
 30
0.0
 11
2525.000079
 21
614.357941
 31
0.0
  0
ARC
  5
345
100
AcDbEntity
  8
1
  6
Continuous
 62
     7
100
AcDbCircle
 10
2642.000079
 20
576.957944
 30
0.0
 40
4.500001
100
AcDbArc
 50
-35.088356
 51
32.29148
  0
LINE
  5
346
100
AcDbEntity
  8
1
  6
Continuous
 62
     7
100
AcDbLine
 10
2638.800083
 20
563.957939
 30
0.0
 11
2525.000079
 21
563.957939
 31
0.0
  0
LINE
  5
347
100
AcDbEntity
  8
1
  6
Continuous
 62
     7
100
AcDbLine
 10
2638.800083
 20
557.957943
 30
0.0
 11
2525.000079
 21
557.957943
 31
0.0
  0
ARC
  5
348
100
AcDbEntity
  8
1
  6
Continuous
 62
     7
100
AcDbCircle
 10
2638.800083
 20
560.957944
 30
0.0
 40
3.000001
100
AcDbArc
 50
-89.977713
 51
89.98833
  0
LINE
  5
349
100
AcDbEntity
  8
1
  6
Continuous
 62
     7
100
AcDbLine
 10
2637.300082
 20
563.957939
 30
0.0
 11
2645.600086
 21
574.457942
 31
0.0
  0
LINE
  5
34A
100
AcDbEntity
  8
1
  6
Continuous
 62
     7
100
AcDbLine
 10
2645.600086
 20
547.45794
 30
0.0
 11
2637.300082
 21
557.957943
 31
0.0
  0
LINE
  5
34B
100
AcDbEntity
  8
1
  6
Continuous
 62
     7
100
AcDbLine
 10
2641.800084
 20
576.957944
 30
0.0
 11
2525.000079
 21
576.957944
 31
0.0
  0
LINE
  5
34C
100
AcDbEntity
  8
1
  6
CENTER
 62
     7
100
AcDbLine
 10
2645.000085
 20
560.957944
 30
0.0
 11
2525.000079
 21
560.957944
 31
0.0
  0
ARC
  5
34D
100
AcDbEntity
  8
1
  6
Continuous
 62
     7
100
AcDbCircle
 10
2642.000079
 20
544.957937
 30
0.0
 40
4.500001
100
AcDbArc
 50
-35.088356
 51
32.29148
  0
LINE
  5
34E
100
AcDbEntity
  8
1
  6
Continuous
 62
     7
100
AcDbLine
 10
2637.300082
 20
531.957943
 30
0.0
 11
2645.600086
 21
542.45794
 31
0.0
  0
LINE
  5
34F
100
AcDbEntity
  8
1
  6
Continuous
 62
     7
100
AcDbLine
 10
2641.800084
 20
544.957937
 30
0.0
 11
2525.000079
 21
544.957937
 31
0.0
  0
LINE
  5
350
100
AcDbEntity
  8
1
  6
Continuous
 62
     7
100
AcDbLine
 10
2645.600086
 20
547.45794
 30
0.0
 11
2637.300082
 21
557.957943
 31
0.0
  0
LINE
  5
351
100
AcDbEntity
  8
1
  6
Continuous
 62
     7
100
AcDbLine
 10
2634.952196
 20
592.957945
 30
0.0
 11
2645.600086
 21
579.457941
 31
0.0
  0
LINE
  5
352
100
AcDbEntity
  8
1
  6
Continuous
 62
     7
100
AcDbLine
 10
2415.047963
 20
592.957945
 30
0.0
 11
2404.400073
 21
579.457941
 31
0.0
  0
LINE
  5
353
100
AcDbEntity
  8
1
  6
CENTER
 62
     7
100
AcDbLine
 10
2665.000089
 20
625.757943
 30
0.0
 11
2665.000089
 21
576.957944
 31
0.0
  0
LINE
  5
354
100
AcDbEntity
  8
1
  6
CENTER
 62
     7
100
AcDbLine
 10
2665.000089
 20
580.657944
 30
0.0
 11
2665.000089
 21
625.757943
 31
0.0
  0
LINE
  5
355
100
AcDbEntity
  8
1
  6
Continuous
 62
     7
100
AcDbLine
 10
2525.000079
 20
324.957939
 30
0.0
 11
2365.000072
 21
324.957939
 31
0.0
  0
LINE
  5
356
100
AcDbEntity
  8
1
  6
Continuous
 62
     7
100
AcDbLine
 10
2365.000072
 20
324.957939
 30
0.0
 11
2365.000072
 21
304.957935
 31
0.0
  0
LINE
  5
357
100
AcDbEntity
  8
1
  6
Continuous
 62
     7
100
AcDbLine
 10
2365.000072
 20
304.957935
 30
0.0
 11
2525.000079
 21
304.957935
 31
0.0
  0
LINE
  5
358
100
AcDbEntity
  8
1
  6
CENTER
 62
     7
100
AcDbLine
 10
2385.00007
 20
292.157936
 30
0.0
 11
2385.00007
 21
340.95794
 31
0.0
  0
LINE
  5
359
100
AcDbEntity
  8
1
  6
CENTER
 62
     7
100
AcDbLine
 10
2385.00007
 20
292.157936
 30
0.0
 11
2385.00007
 21
340.95794
 31
0.0
  0
LINE
  5
35A
100
AcDbEntity
  8
1
  6
Continuous
 62
     7
100
AcDbLine
 10
2415.600074
 20
324.25794
 30
0.0
 11
2404.400073
 21
338.457937
 31
0.0
  0
ARC
  5
35B
100
AcDbEntity
  8
1
  6
Continuous
 62
     7
100
AcDbCircle
 10
2408.00008
 20
340.95794
 30
0.0
 40
4.500001
100
AcDbArc
 50
144.901026
 51
-147.719137
  0
LINE
  5
35C
100
AcDbEntity
  8
1
  6
Continuous
 62
     7
100
AcDbLine
 10
2411.200076
 20
353.95794
 30
0.0
 11
2525.000079
 21
353.95794
 31
0.0
  0
LINE
  5
35D
100
AcDbEntity
  8
1
  6
Continuous
 62
     7
100
AcDbLine
 10
2411.200076
 20
359.957941
 30
0.0
 11
2525.000079
 21
359.957941
 31
0.0
  0
ARC
  5
35E
100
AcDbEntity
  8
1
  6
Continuous
 62
     7
100
AcDbCircle
 10
2411.200076
 20
356.957941
 30
0.0
 40
3.000001
100
AcDbArc
 50
90.01167
 51
-90.022287
  0
LINE
  5
35F
100
AcDbEntity
  8
1
  6
Continuous
 62
     7
100
AcDbLine
 10
2412.700077
 20
353.95794
 30
0.0
 11
2404.400073
 21
343.457937
 31
0.0
  0
LINE
  5
360
100
AcDbEntity
  8
1
  6
Continuous
 62
     7
100
AcDbLine
 10
2404.400073
 20
370.457939
 30
0.0
 11
2412.700077
 21
359.957941
 31
0.0
  0
LINE
  5
361
100
AcDbEntity
  8
1
  6
Continuous
 62
     7
100
AcDbLine
 10
2408.200075
 20
340.95794
 30
0.0
 11
2525.000079
 21
340.95794
 31
0.0
  0
LINE
  5
362
100
AcDbEntity
  8
1
  6
CENTER
 62
     7
100
AcDbLine
 10
2405.000074
 20
356.957941
 30
0.0
 11
2525.000079
 21
356.957941
 31
0.0
  0
ARC
  5
363
100
AcDbEntity
  8
1
  6
Continuous
 62
     7
100
AcDbCircle
 10
2408.00008
 20
372.957936
 30
0.0
 40
4.500001
100
AcDbArc
 50
144.901026
 51
-147.719137
  0
LINE
  5
364
100
AcDbEntity
  8
1
  6
Continuous
 62
     7
100
AcDbLine
 10
2412.700077
 20
385.957941
 30
0.0
 11
2404.400073
 21
375.457938
 31
0.0
  0
LINE
  5
365
100
AcDbEntity
  8
1
  6
Continuous
 62
     7
100
AcDbLine
 10
2408.200075
 20
372.957936
 30
0.0
 11
2525.000079
 21
372.957936
 31
0.0
  0
LINE
  5
366
100
AcDbEntity
  8
1
  6
Continuous
 62
     7
100
AcDbLine
 10
2404.400073
 20
370.457939
 30
0.0
 11
2412.700077
 21
359.957941
 31
0.0
  0
LINE
  5
367
100
AcDbEntity
  8
1
  6
Continuous
 62
     7
100
AcDbLine
 10
2396.500075
 20
304.957935
 30
0.0
 11
2396.500075
 21
298.157943
 31
0.0
  0
LINE
  5
368
100
AcDbEntity
  8
1
  6
Continuous
 62
     7
100
AcDbLine
 10
2396.500075
 20
302.657939
 30
0.0
 11
2525.000079
 21
302.657939
 31
0.0
  0
LINE
  5
369
100
AcDbEntity
  8
1
  6
Continuous
 62
     7
100
AcDbLine
 10
2396.500075
 20
301.157938
 30
0.0
 11
2525.000079
 21
301.157938
 31
0.0
  0
LINE
  5
36A
100
AcDbEntity
  8
1
  6
Continuous
 62
     7
100
AcDbLine
 10
2396.500075
 20
298.157943
 30
0.0
 11
2525.000079
 21
298.157943
 31
0.0
  0
ARC
  5
36B
100
AcDbEntity
  8
1
  6
Continuous
 62
     7
100
AcDbCircle
 10
2428.60008
 20
262.757934
 30
0.0
 40
1.000002
100
AcDbArc
 50
-84.292709
 51
-0.010617
  0
LINE
  5
36C
100
AcDbEntity
  8
1
  6
Continuous
 62
     7
100
AcDbLine
 10
2429.500079
 20
266.057939
 30
0.0
 11
2429.600076
 21
262.757934
 31
0.0
  0
LINE
  5
36D
100
AcDbEntity
  8
1
  6
Continuous
 62
     7
100
AcDbLine
 10
2429.000075
 20
261.65794
 30
0.0
 11
2525.000079
 21
261.65794
 31
0.0
  0
LINE
  5
36E
100
AcDbEntity
  8
1
  6
Continuous
 62
     7
100
AcDbLine
 10
2429.000075
 20
257.35794
 30
0.0
 11
2525.000079
 21
257.35794
 31
0.0
  0
LINE
  5
36F
100
AcDbEntity
  8
1
  6
Continuous
 62
     7
100
AcDbLine
 10
2429.500079
 20
266.057939
 30
0.0
 11
2525.000079
 21
266.057939
 31
0.0
  0
ARC
  5
370
100
AcDbEntity
  8
1
  6
Continuous
 62
     7
100
AcDbCircle
 10
2429.000075
 20
259.557939
 30
0.0
 40
2.199999
100
AcDbArc
 50
97.7466
 51
-90.022287
  0
LINE
  5
371
100
AcDbEntity
  8
1
  6
Continuous
 62
     7
100
AcDbLine
 10
2429.000075
 20
259.557939
 30
0.0
 11
2525.000079
 21
259.557939
 31
0.0
  0
LINE
  5
372
100
AcDbEntity
  8
1
  6
Continuous
 62
     7
100
AcDbLine
 10
2430.326522
 20
266.057939
 30
0.0
 11
2429.000075
 21
298.157943
 31
0.0
  0
LINE
  5
373
100
AcDbEntity
  8
1
  6
Continuous
 62
     7
100
AcDbLine
 10
2525.000079
 20
324.957939
 30
0.0
 11
2685.000087
 21
324.957939
 31
0.0
  0
LINE
  5
374
100
AcDbEntity
  8
1
  6
Continuous
 62
     7
100
AcDbLine
 10
2685.000087
 20
324.957939
 30
0.0
 11
2685.000087
 21
304.957935
 31
0.0
  0
LINE
  5
375
100
AcDbEntity
  8
1
  6
Continuous
 62
     7
100
AcDbLine
 10
2685.000087
 20
304.957935
 30
0.0
 11
2525.000079
 21
304.957935
 31
0.0
  0
LINE
  5
376
100
AcDbEntity
  8
1
  6
CENTER
 62
     7
100
AcDbLine
 10
2665.000089
 20
292.157936
 30
0.0
 11
2665.000089
 21
340.95794
 31
0.0
  0
LINE
  5
377
100
AcDbEntity
  8
1
  6
CENTER
 62
     7
100
AcDbLine
 10
2665.000089
 20
292.157936
 30
0.0
 11
2665.000089
 21
340.95794
 31
0.0
  0
LINE
  5
378
100
AcDbEntity
  8
1
  6
Continuous
 62
     7
100
AcDbLine
 10
2634.400085
 20
324.25794
 30
0.0
 11
2645.600086
 21
338.457937
 31
0.0
  0
ARC
  5
379
100
AcDbEntity
  8
1
  6
Continuous
 62
     7
100
AcDbCircle
 10
2642.000079
 20
340.95794
 30
0.0
 40
4.500001
100
AcDbArc
 50
-32.280863
 51
35.098974
  0
LINE
  5
37A
100
AcDbEntity
  8
1
  6
Continuous
 62
     7
100
AcDbLine
 10
2638.800083
 20
353.95794
 30
0.0
 11
2525.000079
 21
353.95794
 31
0.0
  0
LINE
  5
37B
100
AcDbEntity
  8
1
  6
Continuous
 62
     7
100
AcDbLine
 10
2638.800083
 20
359.957941
 30
0.0
 11
2525.000079
 21
359.957941
 31
0.0
  0
ARC
  5
37C
100
AcDbEntity
  8
1
  6
Continuous
 62
     7
100
AcDbCircle
 10
2638.800083
 20
356.957941
 30
0.0
 40
3.000001
100
AcDbArc
 50
-89.977713
 51
89.98833
  0
LINE
  5
37D
100
AcDbEntity
  8
1
  6
Continuous
 62
     7
100
AcDbLine
 10
2637.300082
 20
353.95794
 30
0.0
 11
2645.600086
 21
343.457937
 31
0.0
  0
LINE
  5
37E
100
AcDbEntity
  8
1
  6
Continuous
 62
     7
100
AcDbLine
 10
2645.600086
 20
370.457939
 30
0.0
 11
2637.300082
 21
359.957941
 31
0.0
  0
LINE
  5
37F
100
AcDbEntity
  8
1
  6
Continuous
 62
     7
100
AcDbLine
 10
2641.800084
 20
340.95794
 30
0.0
 11
2525.000079
 21
340.95794
 31
0.0
  0
LINE
  5
380
100
AcDbEntity
  8
1
  6
CENTER
 62
     7
100
AcDbLine
 10
2645.000085
 20
356.957941
 30
0.0
 11
2525.000079
 21
356.957941
 31
0.0
  0
ARC
  5
381
100
AcDbEntity
  8
1
  6
Continuous
 62
     7
100
AcDbCircle
 10
2642.000079
 20
372.957936
 30
0.0
 40
4.500001
100
AcDbArc
 50
-32.280863
 51
35.098974
  0
LINE
  5
382
100
AcDbEntity
  8
1
  6
Continuous
 62
     7
100
AcDbLine
 10
2637.300082
 20
385.957941
 30
0.0
 11
2645.600086
 21
375.457938
 31
0.0
  0
LINE
  5
383
100
AcDbEntity
  8
1
  6
Continuous
 62
     7
100
AcDbLine
 10
2641.800084
 20
372.957936
 30
0.0
 11
2525.000079
 21
372.957936
 31
0.0
  0
LINE
  5
384
100
AcDbEntity
  8
1
  6
Continuous
 62
     7
100
AcDbLine
 10
2645.600086
 20
370.457939
 30
0.0
 11
2637.300082
 21
359.957941
 31
0.0
  0
LINE
  5
385
100
AcDbEntity
  8
1
  6
Continuous
 62
     7
100
AcDbLine
 10
2653.500084
 20
304.957935
 30
0.0
 11
2653.500084
 21
298.157943
 31
0.0
  0
LINE
  5
386
100
AcDbEntity
  8
1
  6
Continuous
 62
     7
100
AcDbLine
 10
2653.500084
 20
302.657939
 30
0.0
 11
2525.000079
 21
302.657939
 31
0.0
  0
LINE
  5
387
100
AcDbEntity
  8
1
  6
Continuous
 62
     7
100
AcDbLine
 10
2653.500084
 20
301.157938
 30
0.0
 11
2525.000079
 21
301.157938
 31
0.0
  0
LINE
  5
388
100
AcDbEntity
  8
1
  6
Continuous
 62
     7
100
AcDbLine
 10
2653.500084
 20
298.157943
 30
0.0
 11
2525.000079
 21
298.157943
 31
0.0
  0
ARC
  5
389
100
AcDbEntity
  8
1
  6
Continuous
 62
     7
100
AcDbCircle
 10
2621.400079
 20
262.757934
 30
0.0
 40
1.000002
100
AcDbArc
 50
-179.989383
 51
-95.707291
  0
LINE
  5
38A
100
AcDbEntity
  8
1
  6
Continuous
 62
     7
100
AcDbLine
 10
2620.50008
 20
266.057939
 30
0.0
 11
2620.400083
 21
262.757934
 31
0.0
  0
LINE
  5
38B
100
AcDbEntity
  8
1
  6
Continuous
 62
     7
100
AcDbLine
 10
2621.000084
 20
261.65794
 30
0.0
 11
2525.000079
 21
261.65794
 31
0.0
  0
LINE
  5
38C
100
AcDbEntity
  8
1
  6
Continuous
 62
     7
100
AcDbLine
 10
2621.000084
 20
257.35794
 30
0.0
 11
2525.000079
 21
257.35794
 31
0.0
  0
LINE
  5
38D
100
AcDbEntity
  8
1
  6
Continuous
 62
     7
100
AcDbLine
 10
2620.50008
 20
266.057939
 30
0.0
 11
2525.000079
 21
266.057939
 31
0.0
  0
ARC
  5
38E
100
AcDbEntity
  8
1
  6
Continuous
 62
     7
100
AcDbCircle
 10
2621.000084
 20
259.557939
 30
0.0
 40
2.199999
100
AcDbArc
 50
-89.977713
 51
82.2534
  0
LINE
  5
38F
100
AcDbEntity
  8
1
  6
Continuous
 62
     7
100
AcDbLine
 10
2621.000084
 20
259.557939
 30
0.0
 11
2525.000079
 21
259.557939
 31
0.0
  0
LINE
  5
390
100
AcDbEntity
  8
1
  6
Continuous
 62
     7
100
AcDbLine
 10
2619.673637
 20
266.057939
 30
0.0
 11
2621.000084
 21
298.157943
 31
0.0
  0
LINE
  5
391
100
AcDbEntity
  8
1
  6
CENTER
 62
     7
100
AcDbLine
 10
2646.50008
 20
373.057939
 30
0.0
 11
2646.50008
 21
544.957937
 31
0.0
  0
LINE
  5
392
100
AcDbEntity
  8
1
  6
CENTER
 62
     7
100
AcDbLine
 10
2403.500079
 20
373.057939
 30
0.0
 11
2403.500079
 21
544.957937
 31
0.0
  0
LINE
  5
393
100
AcDbEntity
  8
1
  6
CENTER
 62
     7
100
AcDbLine
 10
2525.000079
 20
635.177939
 30
0.0
 11
2525.000079
 21
241.163004
 31
0.0
  0
CIRCLE
  5
394
100
AcDbEntity
  8
1
  6
Continuous
 62
     7
100
AcDbCircle
 10
2525.000079
 20
971.396805
 30
0.0
 40
160.0
  0
CIRCLE
  5
395
100
AcDbEntity
  8
1
  6
Continuous
 62
     7
100
AcDbCircle
 10
2525.000079
 20
971.396805
 30
0.0
 40
128.5
  0
CIRCLE
  5
396
100
AcDbEntity
  8
1
  6
Continuous
 62
     7
100
AcDbCircle
 10
2525.000079
 20
971.396805
 30
0.0
 40
107.5
  0
CIRCLE
  5
397
100
AcDbEntity
  8
1
  6
HIDDEN
 62
     7
100
AcDbCircle
 10
2525.000079
 20
971.396805
 30
0.0
 40
110.5
  0
LINE
  5
398
100
AcDbEntity
  8
1
  6
CENTER
 62
     7
100
AcDbLine
 10
2525.000079
 20
1143.983434
 30
0.0
 11
2525.000079
 21
792.157943
 31
0.0
  0
LINE
  5
399
100
AcDbEntity
  8
1
  6
CENTER
 62
     7
100
AcDbLine
 10
2343.501959
 20
971.396805
 30
0.0
 11
2708.848494
 21
971.396805
 31
0.0
  0
CIRCLE
  5
39A
100
AcDbEntity
  8
1
  6
PHANTOM
 62
     7
100
AcDbCircle
 10
2525.000079
 20
971.396805
 30
0.0
 40
140.0
  0
CIRCLE
  5
39B
100
AcDbEntity
  8
1
  6
Continuous
 62
     7
100
AcDbCircle
 10
2525.000079
 20
1111.396805
 30
0.0
 40
11.5
  0
CIRCLE
  5
39C
100
AcDbEntity
  8
1
  6
Continuous
 62
     7
100
AcDbCircle
 10
2426.00513
 20
1070.391754
 30
0.0
 40
11.5
  0
CIRCLE
  5
39D
100
AcDbEntity
  8
1
  6
Continuous
 62
     7
100
AcDbCircle
 10
2385.000079
 20
971.396805
 30
0.0
 40
11.5
  0
CIRCLE
  5
39E
100
AcDbEntity
  8
1
  6
Continuous
 62
     7
100
AcDbCircle
 10
2426.00513
 20
872.401855
 30
0.0
 40
11.5
  0
CIRCLE
  5
39F
100
AcDbEntity
  8
1
  6
Continuous
 62
     7
100
AcDbCircle
 10
2525.000079
 20
831.396805
 30
0.0
 40
11.5
  0
CIRCLE
  5
3A0
100
AcDbEntity
  8
1
  6
Continuous
 62
     7
100
AcDbCircle
 10
2623.995029
 20
872.401855
 30
0.0
 40
11.5
  0
CIRCLE
  5
3A1
100
AcDbEntity
  8
1
  6
Continuous
 62
     7
100
AcDbCircle
 10
2665.000079
 20
971.396805
 30
0.0
 40
11.5
  0
CIRCLE
  5
3A2
100
AcDbEntity
  8
1
  6
Continuous
 62
     7
100
AcDbCircle
 10
2623.995029
 20
1070.391754
 30
0.0
 40
11.5
  0
LINE
  5
3A3
100
AcDbEntity
  8
1
  6
CENTER
 62
     7
100
AcDbLine
 10
2635.729028
 20
1082.125753
 30
0.0
 11
2611.548954
 21
1057.945679
 31
0.0
  0
LINE
  5
3A4
100
AcDbEntity
  8
1
  6
CENTER
 62
     7
100
AcDbLine
 10
2611.548954
 20
884.84793
 30
0.0
 11
2635.729028
 21
860.667856
 31
0.0
  0
LINE
  5
3A5
100
AcDbEntity
  8
1
  6
CENTER
 62
     7
100
AcDbLine
 10
2414.271131
 20
860.667856
 30
0.0
 11
2438.451205
 21
884.84793
 31
0.0
  0
LINE
  5
3A6
100
AcDbEntity
  8
1
  6
CENTER
 62
     7
100
AcDbLine
 10
2414.271131
 20
1082.125753
 30
0.0
 11
2438.451205
 21
1057.945679
 31
0.0
  0
LINE
  5
3A7
100
AcDbEntity
  8
1
  6
CENTER
 62
     7
100
AcDbLine
 10
2972.500094
 20
368.357936
 30
0.0
 11
2972.500094
 21
368.457938
 31
0.0
  0
LINE
  5
3A8
100
AcDbEntity
  8
1
  6
Continuous
 62
     7
100
AcDbLine
 10
2972.500094
 20
612.957945
 30
0.0
 11
2812.500087
 21
612.957945
 31
0.0
  0
LINE
  5
3A9
100
AcDbEntity
  8
1
  6
Continuous
 62
     7
100
AcDbLine
 10
2812.500087
 20
612.957945
 30
0.0
 11
2812.500087
 21
632.957943
 31
0.0
  0
LINE
  5
3AA
100
AcDbEntity
  8
1
  6
Continuous
 62
     7
100
AcDbLine
 10
2812.500087
 20
632.957943
 30
0.0
 11
2972.500094
 21
632.957943
 31
0.0
  0
LINE
  5
3AB
100
AcDbEntity
  8
1
  6
Continuous
 62
     7
100
AcDbLine
 10
2844.00009
 20
632.957943
 30
0.0
 11
2844.00009
 21
638.157943
 31
0.0
  0
LINE
  5
3AC
100
AcDbEntity
  8
1
  6
Continuous
 62
     7
100
AcDbLine
 10
2844.00009
 20
638.157943
 30
0.0
 11
2972.500094
 21
638.157943
 31
0.0
  0
LINE
  5
3AD
100
AcDbEntity
  8
1
  6
Continuous
 62
     7
100
AcDbLine
 10
2844.00009
 20
635.157942
 30
0.0
 11
2972.500094
 21
635.157942
 31
0.0
  0
LINE
  5
3AE
100
AcDbEntity
  8
1
  6
Continuous
 62
     7
100
AcDbLine
 10
2844.00009
 20
634.357941
 30
0.0
 11
2972.500094
 21
634.357941
 31
0.0
  0
LINE
  5
3AF
100
AcDbEntity
  8
1
  6
CENTER
 62
     7
100
AcDbLine
 10
2832.500085
 20
645.757943
 30
0.0
 11
2832.500085
 21
596.957944
 31
0.0
  0
ARC
  5
3B0
100
AcDbEntity
  8
1
  6
Continuous
 62
     7
100
AcDbCircle
 10
2855.500095
 20
596.957944
 30
0.0
 40
4.500001
100
AcDbArc
 50
147.70852
 51
-144.911644
  0
LINE
  5
3B1
100
AcDbEntity
  8
1
  6
Continuous
 62
     7
100
AcDbLine
 10
2858.700091
 20
583.957939
 30
0.0
 11
2972.500094
 21
583.957939
 31
0.0
  0
LINE
  5
3B2
100
AcDbEntity
  8
1
  6
Continuous
 62
     7
100
AcDbLine
 10
2858.700091
 20
577.957943
 30
0.0
 11
2972.500094
 21
577.957943
 31
0.0
  0
ARC
  5
3B3
100
AcDbEntity
  8
1
  6
Continuous
 62
     7
100
AcDbCircle
 10
2858.700091
 20
580.957944
 30
0.0
 40
3.000001
100
AcDbArc
 50
90.01167
 51
-90.022287
  0
LINE
  5
3B4
100
AcDbEntity
  8
1
  6
Continuous
 62
     7
100
AcDbLine
 10
2860.200091
 20
583.957939
 30
0.0
 11
2851.900087
 21
594.457942
 31
0.0
  0
LINE
  5
3B5
100
AcDbEntity
  8
1
  6
Continuous
 62
     7
100
AcDbLine
 10
2851.900087
 20
567.45794
 30
0.0
 11
2860.200091
 21
577.957943
 31
0.0
  0
LINE
  5
3B6
100
AcDbEntity
  8
1
  6
Continuous
 62
     7
100
AcDbLine
 10
2855.70009
 20
596.957944
 30
0.0
 11
2972.500094
 21
596.957944
 31
0.0
  0
LINE
  5
3B7
100
AcDbEntity
  8
1
  6
CENTER
 62
     7
100
AcDbLine
 10
2852.500089
 20
580.957944
 30
0.0
 11
2972.500094
 21
580.957944
 31
0.0
  0
ARC
  5
3B8
100
AcDbEntity
  8
1
  6
Continuous
 62
     7
100
AcDbCircle
 10
2855.500095
 20
564.957937
 30
0.0
 40
4.500001
100
AcDbArc
 50
147.70852
 51
-144.911644
  0
LINE
  5
3B9
100
AcDbEntity
  8
1
  6
Continuous
 62
     7
100
AcDbLine
 10
2860.200091
 20
551.957943
 30
0.0
 11
2851.900087
 21
562.45794
 31
0.0
  0
LINE
  5
3BA
100
AcDbEntity
  8
1
  6
Continuous
 62
     7
100
AcDbLine
 10
2855.70009
 20
564.957937
 30
0.0
 11
2972.500094
 21
564.957937
 31
0.0
  0
LINE
  5
3BB
100
AcDbEntity
  8
1
  6
Continuous
 62
     7
100
AcDbLine
 10
2851.900087
 20
567.45794
 30
0.0
 11
2860.200091
 21
577.957943
 31
0.0
  0
LINE
  5
3BC
100
AcDbEntity
  8
1
  6
CENTER
 62
     7
100
AcDbLine
 10
2832.500085
 20
600.657944
 30
0.0
 11
2832.500085
 21
645.757943
 31
0.0
  0
LINE
  5
3BD
100
AcDbEntity
  8
1
  6
Continuous
 62
     7
100
AcDbLine
 10
2972.500094
 20
612.957945
 30
0.0
 11
3132.500101
 21
612.957945
 31
0.0
  0
LINE
  5
3BE
100
AcDbEntity
  8
1
  6
Continuous
 62
     7
100
AcDbLine
 10
3132.500101
 20
612.957945
 30
0.0
 11
3132.500101
 21
632.957943
 31
0.0
  0
LINE
  5
3BF
100
AcDbEntity
  8
1
  6
Continuous
 62
     7
100
AcDbLine
 10
3132.500101
 20
632.957943
 30
0.0
 11
2972.500094
 21
632.957943
 31
0.0
  0
LINE
  5
3C0
100
AcDbEntity
  8
1
  6
Continuous
 62
     7
100
AcDbLine
 10
3101.000098
 20
632.957943
 30
0.0
 11
3101.000098
 21
638.157943
 31
0.0
  0
LINE
  5
3C1
100
AcDbEntity
  8
1
  6
Continuous
 62
     7
100
AcDbLine
 10
3101.000098
 20
638.157943
 30
0.0
 11
2972.500094
 21
638.157943
 31
0.0
  0
LINE
  5
3C2
100
AcDbEntity
  8
1
  6
Continuous
 62
     7
100
AcDbLine
 10
3101.000098
 20
635.157942
 30
0.0
 11
2972.500094
 21
635.157942
 31
0.0
  0
LINE
  5
3C3
100
AcDbEntity
  8
1
  6
Continuous
 62
     7
100
AcDbLine
 10
3101.000098
 20
634.357941
 30
0.0
 11
2972.500094
 21
634.357941
 31
0.0
  0
ARC
  5
3C4
100
AcDbEntity
  8
1
  6
Continuous
 62
     7
100
AcDbCircle
 10
3089.500093
 20
596.957944
 30
0.0
 40
4.500001
100
AcDbArc
 50
-35.088356
 51
32.29148
  0
LINE
  5
3C5
100
AcDbEntity
  8
1
  6
Continuous
 62
     7
100
AcDbLine
 10
3086.300097
 20
583.957939
 30
0.0
 11
2972.500094
 21
583.957939
 31
0.0
  0
LINE
  5
3C6
100
AcDbEntity
  8
1
  6
Continuous
 62
     7
100
AcDbLine
 10
3086.300097
 20
577.957943
 30
0.0
 11
2972.500094
 21
577.957943
 31
0.0
  0
ARC
  5
3C7
100
AcDbEntity
  8
1
  6
Continuous
 62
     7
100
AcDbCircle
 10
3086.300097
 20
580.957944
 30
0.0
 40
3.000001
100
AcDbArc
 50
-89.977713
 51
89.98833
  0
LINE
  5
3C8
100
AcDbEntity
  8
1
  6
Continuous
 62
     7
100
AcDbLine
 10
3084.800097
 20
583.957939
 30
0.0
 11
3093.100101
 21
594.457942
 31
0.0
  0
LINE
  5
3C9
100
AcDbEntity
  8
1
  6
Continuous
 62
     7
100
AcDbLine
 10
3093.100101
 20
567.45794
 30
0.0
 11
3084.800097
 21
577.957943
 31
0.0
  0
LINE
  5
3CA
100
AcDbEntity
  8
1
  6
Continuous
 62
     7
100
AcDbLine
 10
3089.300098
 20
596.957944
 30
0.0
 11
2972.500094
 21
596.957944
 31
0.0
  0
LINE
  5
3CB
100
AcDbEntity
  8
1
  6
CENTER
 62
     7
100
AcDbLine
 10
3092.500099
 20
580.957944
 30
0.0
 11
2972.500094
 21
580.957944
 31
0.0
  0
ARC
  5
3CC
100
AcDbEntity
  8
1
  6
Continuous
 62
     7
100
AcDbCircle
 10
3089.500093
 20
564.957937
 30
0.0
 40
4.500001
100
AcDbArc
 50
-35.088356
 51
32.29148
  0
LINE
  5
3CD
100
AcDbEntity
  8
1
  6
Continuous
 62
     7
100
AcDbLine
 10
3084.800097
 20
551.957943
 30
0.0
 11
3093.100101
 21
562.45794
 31
0.0
  0
LINE
  5
3CE
100
AcDbEntity
  8
1
  6
Continuous
 62
     7
100
AcDbLine
 10
3089.300098
 20
564.957937
 30
0.0
 11
2972.500094
 21
564.957937
 31
0.0
  0
LINE
  5
3CF
100
AcDbEntity
  8
1
  6
Continuous
 62
     7
100
AcDbLine
 10
3093.100101
 20
567.45794
 30
0.0
 11
3084.800097
 21
577.957943
 31
0.0
  0
LINE
  5
3D0
100
AcDbEntity
  8
1
  6
Continuous
 62
     7
100
AcDbLine
 10
3082.452211
 20
612.957945
 30
0.0
 11
3093.100101
 21
599.457941
 31
0.0
  0
LINE
  5
3D1
100
AcDbEntity
  8
1
  6
Continuous
 62
     7
100
AcDbLine
 10
2862.547977
 20
612.957945
 30
0.0
 11
2851.900087
 21
599.457941
 31
0.0
  0
LINE
  5
3D2
100
AcDbEntity
  8
1
  6
CENTER
 62
     7
100
AcDbLine
 10
3112.500103
 20
645.757943
 30
0.0
 11
3112.500103
 21
596.957944
 31
0.0
  0
LINE
  5
3D3
100
AcDbEntity
  8
1
  6
CENTER
 62
     7
100
AcDbLine
 10
3112.500103
 20
600.657944
 30
0.0
 11
3112.500103
 21
645.757943
 31
0.0
  0
LINE
  5
3D4
100
AcDbEntity
  8
1
  6
Continuous
 62
     7
100
AcDbLine
 10
2972.500094
 20
324.957939
 30
0.0
 11
2812.500087
 21
324.957939
 31
0.0
  0
LINE
  5
3D5
100
AcDbEntity
  8
1
  6
Continuous
 62
     7
100
AcDbLine
 10
2812.500087
 20
324.957939
 30
0.0
 11
2812.500087
 21
304.957935
 31
0.0
  0
LINE
  5
3D6
100
AcDbEntity
  8
1
  6
Continuous
 62
     7
100
AcDbLine
 10
2812.500087
 20
304.957935
 30
0.0
 11
2972.500094
 21
304.957935
 31
0.0
  0
LINE
  5
3D7
100
AcDbEntity
  8
1
  6
CENTER
 62
     7
100
AcDbLine
 10
2832.500085
 20
292.157936
 30
0.0
 11
2832.500085
 21
340.95794
 31
0.0
  0
LINE
  5
3D8
100
AcDbEntity
  8
1
  6
CENTER
 62
     7
100
AcDbLine
 10
2832.500085
 20
292.157936
 30
0.0
 11
2832.500085
 21
340.95794
 31
0.0
  0
LINE
  5
3D9
100
AcDbEntity
  8
1
  6
Continuous
 62
     7
100
AcDbLine
 10
2863.100089
 20
324.25794
 30
0.0
 11
2851.900087
 21
338.457937
 31
0.0
  0
ARC
  5
3DA
100
AcDbEntity
  8
1
  6
Continuous
 62
     7
100
AcDbCircle
 10
2855.500095
 20
340.95794
 30
0.0
 40
4.500001
100
AcDbArc
 50
144.901026
 51
-147.719137
  0
LINE
  5
3DB
100
AcDbEntity
  8
1
  6
Continuous
 62
     7
100
AcDbLine
 10
2858.700091
 20
353.95794
 30
0.0
 11
2972.500094
 21
353.95794
 31
0.0
  0
LINE
  5
3DC
100
AcDbEntity
  8
1
  6
Continuous
 62
     7
100
AcDbLine
 10
2858.700091
 20
359.957941
 30
0.0
 11
2972.500094
 21
359.957941
 31
0.0
  0
ARC
  5
3DD
100
AcDbEntity
  8
1
  6
Continuous
 62
     7
100
AcDbCircle
 10
2858.700091
 20
356.957941
 30
0.0
 40
3.000001
100
AcDbArc
 50
90.01167
 51
-90.022287
  0
LINE
  5
3DE
100
AcDbEntity
  8
1
  6
Continuous
 62
     7
100
AcDbLine
 10
2860.200091
 20
353.95794
 30
0.0
 11
2851.900087
 21
343.457937
 31
0.0
  0
LINE
  5
3DF
100
AcDbEntity
  8
1
  6
Continuous
 62
     7
100
AcDbLine
 10
2851.900087
 20
370.457939
 30
0.0
 11
2860.200091
 21
359.957941
 31
0.0
  0
LINE
  5
3E0
100
AcDbEntity
  8
1
  6
Continuous
 62
     7
100
AcDbLine
 10
2855.70009
 20
340.95794
 30
0.0
 11
2972.500094
 21
340.95794
 31
0.0
  0
LINE
  5
3E1
100
AcDbEntity
  8
1
  6
CENTER
 62
     7
100
AcDbLine
 10
2852.500089
 20
356.957941
 30
0.0
 11
2972.500094
 21
356.957941
 31
0.0
  0
ARC
  5
3E2
100
AcDbEntity
  8
1
  6
Continuous
 62
     7
100
AcDbCircle
 10
2855.500095
 20
372.957936
 30
0.0
 40
4.500001
100
AcDbArc
 50
144.901026
 51
-147.719137
  0
LINE
  5
3E3
100
AcDbEntity
  8
1
  6
Continuous
 62
     7
100
AcDbLine
 10
2860.200091
 20
385.957941
 30
0.0
 11
2851.900087
 21
375.457938
 31
0.0
  0
LINE
  5
3E4
100
AcDbEntity
  8
1
  6
Continuous
 62
     7
100
AcDbLine
 10
2855.70009
 20
372.957936
 30
0.0
 11
2972.500094
 21
372.957936
 31
0.0
  0
LINE
  5
3E5
100
AcDbEntity
  8
1
  6
Continuous
 62
     7
100
AcDbLine
 10
2851.900087
 20
370.457939
 30
0.0
 11
2860.200091
 21
359.957941
 31
0.0
  0
LINE
  5
3E6
100
AcDbEntity
  8
1
  6
Continuous
 62
     7
100
AcDbLine
 10
2844.00009
 20
304.957935
 30
0.0
 11
2844.00009
 21
298.157943
 31
0.0
  0
LINE
  5
3E7
100
AcDbEntity
  8
1
  6
Continuous
 62
     7
100
AcDbLine
 10
2844.00009
 20
302.657939
 30
0.0
 11
2972.500094
 21
302.657939
 31
0.0
  0
LINE
  5
3E8
100
AcDbEntity
  8
1
  6
Continuous
 62
     7
100
AcDbLine
 10
2844.00009
 20
301.157938
 30
0.0
 11
2972.500094
 21
301.157938
 31
0.0
  0
LINE
  5
3E9
100
AcDbEntity
  8
1
  6
Continuous
 62
     7
100
AcDbLine
 10
2844.00009
 20
298.157943
 30
0.0
 11
2972.500094
 21
298.157943
 31
0.0
  0
ARC
  5
3EA
100
AcDbEntity
  8
1
  6
Continuous
 62
     7
100
AcDbCircle
 10
2876.100094
 20
262.757934
 30
0.0
 40
1.000002
100
AcDbArc
 50
-84.292709
 51
-0.010617
  0
LINE
  5
3EB
100
AcDbEntity
  8
1
  6
Continuous
 62
     7
100
AcDbLine
 10
2877.000093
 20
266.057939
 30
0.0
 11
2877.100091
 21
262.757934
 31
0.0
  0
LINE
  5
3EC
100
AcDbEntity
  8
1
  6
Continuous
 62
     7
100
AcDbLine
 10
2876.50009
 20
261.65794
 30
0.0
 11
2972.500094
 21
261.65794
 31
0.0
  0
LINE
  5
3ED
100
AcDbEntity
  8
1
  6
Continuous
 62
     7
100
AcDbLine
 10
2876.50009
 20
257.35794
 30
0.0
 11
2972.500094
 21
257.35794
 31
0.0
  0
LINE
  5
3EE
100
AcDbEntity
  8
1
  6
Continuous
 62
     7
100
AcDbLine
 10
2877.000093
 20
266.057939
 30
0.0
 11
2972.500094
 21
266.057939
 31
0.0
  0
ARC
  5
3EF
100
AcDbEntity
  8
1
  6
Continuous
 62
     7
100
AcDbCircle
 10
2876.50009
 20
259.557939
 30
0.0
 40
2.199999
100
AcDbArc
 50
97.7466
 51
-90.022287
  0
LINE
  5
3F0
100
AcDbEntity
  8
1
  6
Continuous
 62
     7
100
AcDbLine
 10
2876.50009
 20
259.557939
 30
0.0
 11
2972.500094
 21
259.557939
 31
0.0
  0
LINE
  5
3F1
100
AcDbEntity
  8
1
  6
Continuous
 62
     7
100
AcDbLine
 10
2877.826536
 20
266.057939
 30
0.0
 11
2876.50009
 21
298.157943
 31
0.0
  0
LINE
  5
3F2
100
AcDbEntity
  8
1
  6
Continuous
 62
     7
100
AcDbLine
 10
2972.500094
 20
324.957939
 30
0.0
 11
3132.500101
 21
324.957939
 31
0.0
  0
LINE
  5
3F3
100
AcDbEntity
  8
1
  6
Continuous
 62
     7
100
AcDbLine
 10
3132.500101
 20
324.957939
 30
0.0
 11
3132.500101
 21
304.957935
 31
0.0
  0
LINE
  5
3F4
100
AcDbEntity
  8
1
  6
Continuous
 62
     7
100
AcDbLine
 10
3132.500101
 20
304.957935
 30
0.0
 11
2972.500094
 21
304.957935
 31
0.0
  0
LINE
  5
3F5
100
AcDbEntity
  8
1
  6
CENTER
 62
     7
100
AcDbLine
 10
3112.500103
 20
292.157936
 30
0.0
 11
3112.500103
 21
340.95794
 31
0.0
  0
LINE
  5
3F6
100
AcDbEntity
  8
1
  6
CENTER
 62
     7
100
AcDbLine
 10
3112.500103
 20
292.157936
 30
0.0
 11
3112.500103
 21
340.95794
 31
0.0
  0
LINE
  5
3F7
100
AcDbEntity
  8
1
  6
Continuous
 62
     7
100
AcDbLine
 10
3081.900099
 20
324.25794
 30
0.0
 11
3093.100101
 21
338.457937
 31
0.0
  0
ARC
  5
3F8
100
AcDbEntity
  8
1
  6
Continuous
 62
     7
100
AcDbCircle
 10
3089.500093
 20
340.95794
 30
0.0
 40
4.500001
100
AcDbArc
 50
-32.280863
 51
35.098974
  0
LINE
  5
3F9
100
AcDbEntity
  8
1
  6
Continuous
 62
     7
100
AcDbLine
 10
3086.300097
 20
353.95794
 30
0.0
 11
2972.500094
 21
353.95794
 31
0.0
  0
LINE
  5
3FA
100
AcDbEntity
  8
1
  6
Continuous
 62
     7
100
AcDbLine
 10
3086.300097
 20
359.957941
 30
0.0
 11
2972.500094
 21
359.957941
 31
0.0
  0
ARC
  5
3FB
100
AcDbEntity
  8
1
  6
Continuous
 62
     7
100
AcDbCircle
 10
3086.300097
 20
356.957941
 30
0.0
 40
3.000001
100
AcDbArc
 50
-89.977713
 51
89.98833
  0
LINE
  5
3FC
100
AcDbEntity
  8
1
  6
Continuous
 62
     7
100
AcDbLine
 10
3084.800097
 20
353.95794
 30
0.0
 11
3093.100101
 21
343.457937
 31
0.0
  0
LINE
  5
3FD
100
AcDbEntity
  8
1
  6
Continuous
 62
     7
100
AcDbLine
 10
3093.100101
 20
370.457939
 30
0.0
 11
3084.800097
 21
359.957941
 31
0.0
  0
LINE
  5
3FE
100
AcDbEntity
  8
1
  6
Continuous
 62
     7
100
AcDbLine
 10
3089.300098
 20
340.95794
 30
0.0
 11
2972.500094
 21
340.95794
 31
0.0
  0
LINE
  5
3FF
100
AcDbEntity
  8
1
  6
CENTER
 62
     7
100
AcDbLine
 10
3092.500099
 20
356.957941
 30
0.0
 11
2972.500094
 21
356.957941
 31
0.0
  0
ARC
  5
400
100
AcDbEntity
  8
1
  6
Continuous
 62
     7
100
AcDbCircle
 10
3089.500093
 20
372.957936
 30
0.0
 40
4.500001
100
AcDbArc
 50
-32.280863
 51
35.098974
  0
LINE
  5
401
100
AcDbEntity
  8
1
  6
Continuous
 62
     7
100
AcDbLine
 10
3084.800097
 20
385.957941
 30
0.0
 11
3093.100101
 21
375.457938
 31
0.0
  0
LINE
  5
402
100
AcDbEntity
  8
1
  6
Continuous
 62
     7
100
AcDbLine
 10
3089.300098
 20
372.957936
 30
0.0
 11
2972.500094
 21
372.957936
 31
0.0
  0
LINE
  5
403
100
AcDbEntity
  8
1
  6
Continuous
 62
     7
100
AcDbLine
 10
3093.100101
 20
370.457939
 30
0.0
 11
3084.800097
 21
359.957941
 31
0.0
  0
LINE
  5
404
100
AcDbEntity
  8
1
  6
Continuous
 62
     7
100
AcDbLine
 10
3101.000098
 20
304.957935
 30
0.0
 11
3101.000098
 21
298.157943
 31
0.0
  0
LINE
  5
405
100
AcDbEntity
  8
1
  6
Continuous
 62
     7
100
AcDbLine
 10
3101.000098
 20
302.657939
 30
0.0
 11
2972.500094
 21
302.657939
 31
0.0
  0
LINE
  5
406
100
AcDbEntity
  8
1
  6
Continuous
 62
     7
100
AcDbLine
 10
3101.000098
 20
301.157938
 30
0.0
 11
2972.500094
 21
301.157938
 31
0.0
  0
LINE
  5
407
100
AcDbEntity
  8
1
  6
Continuous
 62
     7
100
AcDbLine
 10
3101.000098
 20
298.157943
 30
0.0
 11
2972.500094
 21
298.157943
 31
0.0
  0
ARC
  5
408
100
AcDbEntity
  8
1
  6
Continuous
 62
     7
100
AcDbCircle
 10
3068.900094
 20
262.757934
 30
0.0
 40
1.000002
100
AcDbArc
 50
-179.989383
 51
-95.707291
  0
LINE
  5
409
100
AcDbEntity
  8
1
  6
Continuous
 62
     7
100
AcDbLine
 10
3068.000094
 20
266.057939
 30
0.0
 11
3067.900097
 21
262.757934
 31
0.0
  0
LINE
  5
40A
100
AcDbEntity
  8
1
  6
Continuous
 62
     7
100
AcDbLine
 10
3068.500098
 20
261.65794
 30
0.0
 11
2972.500094
 21
261.65794
 31
0.0
  0
LINE
  5
40B
100
AcDbEntity
  8
1
  6
Continuous
 62
     7
100
AcDbLine
 10
3068.500098
 20
257.35794
 30
0.0
 11
2972.500094
 21
257.35794
 31
0.0
  0
LINE
  5
40C
100
AcDbEntity
  8
1
  6
Continuous
 62
     7
100
AcDbLine
 10
3068.000094
 20
266.057939
 30
0.0
 11
2972.500094
 21
266.057939
 31
0.0
  0
ARC
  5
40D
100
AcDbEntity
  8
1
  6
Continuous
 62
     7
100
AcDbCircle
 10
3068.500098
 20
259.557939
 30
0.0
 40
2.199999
100
AcDbArc
 50
-89.977713
 51
82.2534
  0
LINE
  5
40E
100
AcDbEntity
  8
1
  6
Continuous
 62
     7
100
AcDbLine
 10
3068.500098
 20
259.557939
 30
0.0
 11
2972.500094
 21
259.557939
 31
0.0
  0
LINE
  5
40F
100
AcDbEntity
  8
1
  6
Continuous
 62
     7
100
AcDbLine
 10
3067.173652
 20
266.057939
 30
0.0
 11
3068.500098
 21
298.157943
 31
0.0
  0
LINE
  5
410
100
AcDbEntity
  8
1
  6
CENTER
 62
     7
100
AcDbLine
 10
3094.000094
 20
373.057939
 30
0.0
 11
3094.000094
 21
564.957937
 31
0.0
  0
LINE
  5
411
100
AcDbEntity
  8
1
  6
CENTER
 62
     7
100
AcDbLine
 10
2851.000094
 20
373.057939
 30
0.0
 11
2851.000094
 21
564.957937
 31
0.0
  0
LINE
  5
412
100
AcDbEntity
  8
1
  6
CENTER
 62
     7
100
AcDbLine
 10
2972.500094
 20
655.177939
 30
0.0
 11
2972.500094
 21
241.163004
 31
0.0
  0
CIRCLE
  5
413
100
AcDbEntity
  8
1
  6
Continuous
 62
     7
100
AcDbCircle
 10
2972.500094
 20
991.396805
 30
0.0
 40
160.0
  0
CIRCLE
  5
414
100
AcDbEntity
  8
1
  6
Continuous
 62
     7
100
AcDbCircle
 10
2972.500094
 20
991.396805
 30
0.0
 40
128.5
  0
CIRCLE
  5
415
100
AcDbEntity
  8
1
  6
Continuous
 62
     7
100
AcDbCircle
 10
2972.500094
 20
991.396805
 30
0.0
 40
107.5
  0
CIRCLE
  5
416
100
AcDbEntity
  8
1
  6
HIDDEN
 62
     7
100
AcDbCircle
 10
2972.500094
 20
991.396805
 30
0.0
 40
110.5
  0
LINE
  5
417
100
AcDbEntity
  8
1
  6
CENTER
 62
     7
100
AcDbLine
 10
2972.500094
 20
1163.983434
 30
0.0
 11
2972.500094
 21
812.157943
 31
0.0
  0
LINE
  5
418
100
AcDbEntity
  8
1
  6
CENTER
 62
     7
100
AcDbLine
 10
2791.001973
 20
991.396805
 30
0.0
 11
3156.348508
 21
991.396805
 31
0.0
  0
CIRCLE
  5
419
100
AcDbEntity
  8
1
  6
PHANTOM
 62
     7
100
AcDbCircle
 10
2972.500094
 20
991.396805
 30
0.0
 40
140.0
  0
CIRCLE
  5
41A
100
AcDbEntity
  8
1
  6
Continuous
 62
     7
100
AcDbCircle
 10
2972.500094
 20
1131.396805
 30
0.0
 40
11.5
  0
CIRCLE
  5
41B
100
AcDbEntity
  8
1
  6
Continuous
 62
     7
100
AcDbCircle
 10
2873.505145
 20
1090.391754
 30
0.0
 40
11.5
  0
CIRCLE
  5
41C
100
AcDbEntity
  8
1
  6
Continuous
 62
     7
100
AcDbCircle
 10
2832.500094
 20
991.396805
 30
0.0
 40
11.5
  0
CIRCLE
  5
41D
100
AcDbEntity
  8
1
  6
Continuous
 62
     7
100
AcDbCircle
 10
2873.505145
 20
892.401855
 30
0.0
 40
11.5
  0
CIRCLE
  5
41E
100
AcDbEntity
  8
1
  6
Continuous
 62
     7
100
AcDbCircle
 10
2972.500094
 20
851.396805
 30
0.0
 40
11.5
  0
CIRCLE
  5
41F
100
AcDbEntity
  8
1
  6
Continuous
 62
     7
100
AcDbCircle
 10
3071.495043
 20
892.401855
 30
0.0
 40
11.5
  0
CIRCLE
  5
420
100
AcDbEntity
  8
1
  6
Continuous
 62
     7
100
AcDbCircle
 10
3112.500094
 20
991.396805
 30
0.0
 40
11.5
  0
CIRCLE
  5
421
100
AcDbEntity
  8
1
  6
Continuous
 62
     7
100
AcDbCircle
 10
3071.495043
 20
1090.391754
 30
0.0
 40
11.5
  0
LINE
  5
422
100
AcDbEntity
  8
1
  6
CENTER
 62
     7
100
AcDbLine
 10
3083.229043
 20
1102.125753
 30
0.0
 11
3059.048969
 21
1077.945679
 31
0.0
  0
LINE
  5
423
100
AcDbEntity
  8
1
  6
CENTER
 62
     7
100
AcDbLine
 10
3059.048969
 20
904.84793
 30
0.0
 11
3083.229043
 21
880.667856
 31
0.0
  0
LINE
  5
424
100
AcDbEntity
  8
1
  6
CENTER
 62
     7
100
AcDbLine
 10
2861.771145
 20
880.667856
 30
0.0
 11
2885.951219
 21
904.84793
 31
0.0
  0
LINE
  5
425
100
AcDbEntity
  8
1
  6
CENTER
 62
     7
100
AcDbLine
 10
2861.771145
 20
1102.125753
 30
0.0
 11
2885.951219
 21
1077.945679
 31
0.0
  0
LINE
  5
426
100
AcDbEntity
  8
1
  6
CENTER
 62
     7
100
AcDbLine
 10
3420.000108
 20
388.357936
 30
0.0
 11
3420.000108
 21
388.457938
 31
0.0
  0
LINE
  5
427
100
AcDbEntity
  8
1
  6
Continuous
 62
     7
100
AcDbLine
 10
3420.000108
 20
632.957945
 30
0.0
 11
3260.000101
 21
632.957945
 31
0.0
  0
LINE
  5
428
100
AcDbEntity
  8
1
  6
Continuous
 62
     7
100
AcDbLine
 10
3260.000101
 20
632.957945
 30
0.0
 11
3260.000101
 21
652.957943
 31
0.0
  0
LINE
  5
429
100
AcDbEntity
  8
1
  6
Continuous
 62
     7
100
AcDbLine
 10
3260.000101
 20
652.957943
 30
0.0
 11
3420.000108
 21
652.957943
 31
0.0
  0
LINE
  5
42A
100
AcDbEntity
  8
1
  6
Continuous
 62
     7
100
AcDbLine
 10
3291.500104
 20
652.957943
 30
0.0
 11
3291.500104
 21
658.157943
 31
0.0
  0
LINE
  5
42B
100
AcDbEntity
  8
1
  6
Continuous
 62
     7
100
AcDbLine
 10
3291.500104
 20
658.157943
 30
0.0
 11
3420.000108
 21
658.157943
 31
0.0
  0
LINE
  5
42C
100
AcDbEntity
  8
1
  6
Continuous
 62
     7
100
AcDbLine
 10
3291.500104
 20
655.157942
 30
0.0
 11
3420.000108
 21
655.157942
 31
0.0
  0
LINE
  5
42D
100
AcDbEntity
  8
1
  6
Continuous
 62
     7
100
AcDbLine
 10
3291.500104
 20
654.357941
 30
0.0
 11
3420.000108
 21
654.357941
 31
0.0
  0
LINE
  5
42E
100
AcDbEntity
  8
1
  6
CENTER
 62
     7
100
AcDbLine
 10
3280.000099
 20
665.757943
 30
0.0
 11
3280.000099
 21
616.957944
 31
0.0
  0
ARC
  5
42F
100
AcDbEntity
  8
1
  6
Continuous
 62
     7
100
AcDbCircle
 10
3303.000109
 20
616.957944
 30
0.0
 40
4.500001
100
AcDbArc
 50
147.70852
 51
-144.911644
  0
LINE
  5
430
100
AcDbEntity
  8
1
  6
Continuous
 62
     7
100
AcDbLine
 10
3306.200105
 20
603.957939
 30
0.0
 11
3420.000108
 21
603.957939
 31
0.0
  0
LINE
  5
431
100
AcDbEntity
  8
1
  6
Continuous
 62
     7
100
AcDbLine
 10
3306.200105
 20
597.957943
 30
0.0
 11
3420.000108
 21
597.957943
 31
0.0
  0
ARC
  5
432
100
AcDbEntity
  8
1
  6
Continuous
 62
     7
100
AcDbCircle
 10
3306.200105
 20
600.957944
 30
0.0
 40
3.000001
100
AcDbArc
 50
90.01167
 51
-90.022287
  0
LINE
  5
433
100
AcDbEntity
  8
1
  6
Continuous
 62
     7
100
AcDbLine
 10
3307.700105
 20
603.957939
 30
0.0
 11
3299.400102
 21
614.457942
 31
0.0
  0
LINE
  5
434
100
AcDbEntity
  8
1
  6
Continuous
 62
     7
100
AcDbLine
 10
3299.400102
 20
587.45794
 30
0.0
 11
3307.700105
 21
597.957943
 31
0.0
  0
LINE
  5
435
100
AcDbEntity
  8
1
  6
Continuous
 62
     7
100
AcDbLine
 10
3303.200104
 20
616.957944
 30
0.0
 11
3420.000108
 21
616.957944
 31
0.0
  0
LINE
  5
436
100
AcDbEntity
  8
1
  6
CENTER
 62
     7
100
AcDbLine
 10
3300.000103
 20
600.957944
 30
0.0
 11
3420.000108
 21
600.957944
 31
0.0
  0
ARC
  5
437
100
AcDbEntity
  8
1
  6
Continuous
 62
     7
100
AcDbCircle
 10
3303.000109
 20
584.957937
 30
0.0
 40
4.500001
100
AcDbArc
 50
147.70852
 51
-144.911644
  0
LINE
  5
438
100
AcDbEntity
  8
1
  6
Continuous
 62
     7
100
AcDbLine
 10
3307.700105
 20
571.957943
 30
0.0
 11
3299.400102
 21
582.45794
 31
0.0
  0
LINE
  5
439
100
AcDbEntity
  8
1
  6
Continuous
 62
     7
100
AcDbLine
 10
3303.200104
 20
584.957937
 30
0.0
 11
3420.000108
 21
584.957937
 31
0.0
  0
LINE
  5
43A
100
AcDbEntity
  8
1
  6
Continuous
 62
     7
100
AcDbLine
 10
3299.400102
 20
587.45794
 30
0.0
 11
3307.700105
 21
597.957943
 31
0.0
  0
LINE
  5
43B
100
AcDbEntity
  8
1
  6
CENTER
 62
     7
100
AcDbLine
 10
3280.000099
 20
620.657944
 30
0.0
 11
3280.000099
 21
665.757943
 31
0.0
  0
LINE
  5
43C
100
AcDbEntity
  8
1
  6
Continuous
 62
     7
100
AcDbLine
 10
3420.000108
 20
632.957945
 30
0.0
 11
3580.000116
 21
632.957945
 31
0.0
  0
LINE
  5
43D
100
AcDbEntity
  8
1
  6
Continuous
 62
     7
100
AcDbLine
 10
3580.000116
 20
632.957945
 30
0.0
 11
3580.000116
 21
652.957943
 31
0.0
  0
LINE
  5
43E
100
AcDbEntity
  8
1
  6
Continuous
 62
     7
100
AcDbLine
 10
3580.000116
 20
652.957943
 30
0.0
 11
3420.000108
 21
652.957943
 31
0.0
  0
LINE
  5
43F
100
AcDbEntity
  8
1
  6
Continuous
 62
     7
100
AcDbLine
 10
3548.500112
 20
652.957943
 30
0.0
 11
3548.500112
 21
658.157943
 31
0.0
  0
LINE
  5
440
100
AcDbEntity
  8
1
  6
Continuous
 62
     7
100
AcDbLine
 10
3548.500112
 20
658.157943
 30
0.0
 11
3420.000108
 21
658.157943
 31
0.0
  0
LINE
  5
441
100
AcDbEntity
  8
1
  6
Continuous
 62
     7
100
AcDbLine
 10
3548.500112
 20
655.157942
 30
0.0
 11
3420.000108
 21
655.157942
 31
0.0
  0
LINE
  5
442
100
AcDbEntity
  8
1
  6
Continuous
 62
     7
100
AcDbLine
 10
3548.500112
 20
654.357941
 30
0.0
 11
3420.000108
 21
654.357941
 31
0.0
  0
ARC
  5
443
100
AcDbEntity
  8
1
  6
Continuous
 62
     7
100
AcDbCircle
 10
3537.000107
 20
616.957944
 30
0.0
 40
4.500001
100
AcDbArc
 50
-35.088356
 51
32.29148
  0
LINE
  5
444
100
AcDbEntity
  8
1
  6
Continuous
 62
     7
100
AcDbLine
 10
3533.800112
 20
603.957939
 30
0.0
 11
3420.000108
 21
603.957939
 31
0.0
  0
LINE
  5
445
100
AcDbEntity
  8
1
  6
Continuous
 62
     7
100
AcDbLine
 10
3533.800112
 20
597.957943
 30
0.0
 11
3420.000108
 21
597.957943
 31
0.0
  0
ARC
  5
446
100
AcDbEntity
  8
1
  6
Continuous
 62
     7
100
AcDbCircle
 10
3533.800112
 20
600.957944
 30
0.0
 40
3.000001
100
AcDbArc
 50
-89.977713
 51
89.98833
  0
LINE
  5
447
100
AcDbEntity
  8
1
  6
Continuous
 62
     7
100
AcDbLine
 10
3532.300111
 20
603.957939
 30
0.0
 11
3540.600115
 21
614.457942
 31
0.0
  0
LINE
  5
448
100
AcDbEntity
  8
1
  6
Continuous
 62
     7
100
AcDbLine
 10
3540.600115
 20
587.45794
 30
0.0
 11
3532.300111
 21
597.957943
 31
0.0
  0
LINE
  5
449
100
AcDbEntity
  8
1
  6
Continuous
 62
     7
100
AcDbLine
 10
3536.800113
 20
616.957944
 30
0.0
 11
3420.000108
 21
616.957944
 31
0.0
  0
LINE
  5
44A
100
AcDbEntity
  8
1
  6
CENTER
 62
     7
100
AcDbLine
 10
3540.000114
 20
600.957944
 30
0.0
 11
3420.000108
 21
600.957944
 31
0.0
  0
ARC
  5
44B
100
AcDbEntity
  8
1
  6
Continuous
 62
     7
100
AcDbCircle
 10
3537.000107
 20
584.957937
 30
0.0
 40
4.500001
100
AcDbArc
 50
-35.088356
 51
32.29148
  0
LINE
  5
44C
100
AcDbEntity
  8
1
  6
Continuous
 62
     7
100
AcDbLine
 10
3532.300111
 20
571.957943
 30
0.0
 11
3540.600115
 21
582.45794
 31
0.0
  0
LINE
  5
44D
100
AcDbEntity
  8
1
  6
Continuous
 62
     7
100
AcDbLine
 10
3536.800113
 20
584.957937
 30
0.0
 11
3420.000108
 21
584.957937
 31
0.0
  0
LINE
  5
44E
100
AcDbEntity
  8
1
  6
Continuous
 62
     7
100
AcDbLine
 10
3540.600115
 20
587.45794
 30
0.0
 11
3532.300111
 21
597.957943
 31
0.0
  0
LINE
  5
44F
100
AcDbEntity
  8
1
  6
Continuous
 62
     7
100
AcDbLine
 10
3529.952225
 20
632.957945
 30
0.0
 11
3540.600115
 21
619.457941
 31
0.0
  0
LINE
  5
450
100
AcDbEntity
  8
1
  6
Continuous
 62
     7
100
AcDbLine
 10
3310.047992
 20
632.957945
 30
0.0
 11
3299.400102
 21
619.457941
 31
0.0
  0
LINE
  5
451
100
AcDbEntity
  8
1
  6
CENTER
 62
     7
100
AcDbLine
 10
3560.000117
 20
665.757943
 30
0.0
 11
3560.000117
 21
616.957944
 31
0.0
  0
LINE
  5
452
100
AcDbEntity
  8
1
  6
CENTER
 62
     7
100
AcDbLine
 10
3560.000117
 20
620.657944
 30
0.0
 11
3560.000117
 21
665.757943
 31
0.0
  0
LINE
  5
453
100
AcDbEntity
  8
1
  6
Continuous
 62
     7
100
AcDbLine
 10
3420.000108
 20
324.957939
 30
0.0
 11
3260.000101
 21
324.957939
 31
0.0
  0
LINE
  5
454
100
AcDbEntity
  8
1
  6
Continuous
 62
     7
100
AcDbLine
 10
3260.000101
 20
324.957939
 30
0.0
 11
3260.000101
 21
304.957935
 31
0.0
  0
LINE
  5
455
100
AcDbEntity
  8
1
  6
Continuous
 62
     7
100
AcDbLine
 10
3260.000101
 20
304.957935
 30
0.0
 11
3420.000108
 21
304.957935
 31
0.0
  0
LINE
  5
456
100
AcDbEntity
  8
1
  6
CENTER
 62
     7
100
AcDbLine
 10
3280.000099
 20
292.157936
 30
0.0
 11
3280.000099
 21
340.95794
 31
0.0
  0
LINE
  5
457
100
AcDbEntity
  8
1
  6
CENTER
 62
     7
100
AcDbLine
 10
3280.000099
 20
292.157936
 30
0.0
 11
3280.000099
 21
340.95794
 31
0.0
  0
LINE
  5
458
100
AcDbEntity
  8
1
  6
Continuous
 62
     7
100
AcDbLine
 10
3310.600103
 20
324.25794
 30
0.0
 11
3299.400102
 21
338.457937
 31
0.0
  0
ARC
  5
459
100
AcDbEntity
  8
1
  6
Continuous
 62
     7
100
AcDbCircle
 10
3303.000109
 20
340.95794
 30
0.0
 40
4.500001
100
AcDbArc
 50
144.901026
 51
-147.719137
  0
LINE
  5
45A
100
AcDbEntity
  8
1
  6
Continuous
 62
     7
100
AcDbLine
 10
3306.200105
 20
353.95794
 30
0.0
 11
3420.000108
 21
353.95794
 31
0.0
  0
LINE
  5
45B
100
AcDbEntity
  8
1
  6
Continuous
 62
     7
100
AcDbLine
 10
3306.200105
 20
359.957941
 30
0.0
 11
3420.000108
 21
359.957941
 31
0.0
  0
ARC
  5
45C
100
AcDbEntity
  8
1
  6
Continuous
 62
     7
100
AcDbCircle
 10
3306.200105
 20
356.957941
 30
0.0
 40
3.000001
100
AcDbArc
 50
90.01167
 51
-90.022287
  0
LINE
  5
45D
100
AcDbEntity
  8
1
  6
Continuous
 62
     7
100
AcDbLine
 10
3307.700105
 20
353.95794
 30
0.0
 11
3299.400102
 21
343.457937
 31
0.0
  0
LINE
  5
45E
100
AcDbEntity
  8
1
  6
Continuous
 62
     7
100
AcDbLine
 10
3299.400102
 20
370.457939
 30
0.0
 11
3307.700105
 21
359.957941
 31
0.0
  0
LINE
  5
45F
100
AcDbEntity
  8
1
  6
Continuous
 62
     7
100
AcDbLine
 10
3303.200104
 20
340.95794
 30
0.0
 11
3420.000108
 21
340.95794
 31
0.0
  0
LINE
  5
460
100
AcDbEntity
  8
1
  6
CENTER
 62
     7
100
AcDbLine
 10
3300.000103
 20
356.957941
 30
0.0
 11
3420.000108
 21
356.957941
 31
0.0
  0
ARC
  5
461
100
AcDbEntity
  8
1
  6
Continuous
 62
     7
100
AcDbCircle
 10
3303.000109
 20
372.957936
 30
0.0
 40
4.500001
100
AcDbArc
 50
144.901026
 51
-147.719137
  0
LINE
  5
462
100
AcDbEntity
  8
1
  6
Continuous
 62
     7
100
AcDbLine
 10
3307.700105
 20
385.957941
 30
0.0
 11
3299.400102
 21
375.457938
 31
0.0
  0
LINE
  5
463
100
AcDbEntity
  8
1
  6
Continuous
 62
     7
100
AcDbLine
 10
3303.200104
 20
372.957936
 30
0.0
 11
3420.000108
 21
372.957936
 31
0.0
  0
LINE
  5
464
100
AcDbEntity
  8
1
  6
Continuous
 62
     7
100
AcDbLine
 10
3299.400102
 20
370.457939
 30
0.0
 11
3307.700105
 21
359.957941
 31
0.0
  0
LINE
  5
465
100
AcDbEntity
  8
1
  6
Continuous
 62
     7
100
AcDbLine
 10
3291.500104
 20
304.957935
 30
0.0
 11
3291.500104
 21
298.157943
 31
0.0
  0
LINE
  5
466
100
AcDbEntity
  8
1
  6
Continuous
 62
     7
100
AcDbLine
 10
3291.500104
 20
302.657939
 30
0.0
 11
3420.000108
 21
302.657939
 31
0.0
  0
LINE
  5
467
100
AcDbEntity
  8
1
  6
Continuous
 62
     7
100
AcDbLine
 10
3291.500104
 20
301.157938
 30
0.0
 11
3420.000108
 21
301.157938
 31
0.0
  0
LINE
  5
468
100
AcDbEntity
  8
1
  6
Continuous
 62
     7
100
AcDbLine
 10
3291.500104
 20
298.157943
 30
0.0
 11
3420.000108
 21
298.157943
 31
0.0
  0
ARC
  5
469
100
AcDbEntity
  8
1
  6
Continuous
 62
     7
100
AcDbCircle
 10
3323.600109
 20
262.757934
 30
0.0
 40
1.000002
100
AcDbArc
 50
-84.292709
 51
-0.010617
  0
LINE
  5
46A
100
AcDbEntity
  8
1
  6
Continuous
 62
     7
100
AcDbLine
 10
3324.500108
 20
266.057939
 30
0.0
 11
3324.600105
 21
262.757934
 31
0.0
  0
LINE
  5
46B
100
AcDbEntity
  8
1
  6
Continuous
 62
     7
100
AcDbLine
 10
3324.000104
 20
261.65794
 30
0.0
 11
3420.000108
 21
261.65794
 31
0.0
  0
LINE
  5
46C
100
AcDbEntity
  8
1
  6
Continuous
 62
     7
100
AcDbLine
 10
3324.000104
 20
257.35794
 30
0.0
 11
3420.000108
 21
257.35794
 31
0.0
  0
LINE
  5
46D
100
AcDbEntity
  8
1
  6
Continuous
 62
     7
100
AcDbLine
 10
3324.500108
 20
266.057939
 30
0.0
 11
3420.000108
 21
266.057939
 31
0.0
  0
ARC
  5
46E
100
AcDbEntity
  8
1
  6
Continuous
 62
     7
100
AcDbCircle
 10
3324.000104
 20
259.557939
 30
0.0
 40
2.199999
100
AcDbArc
 50
97.7466
 51
-90.022287
  0
LINE
  5
46F
100
AcDbEntity
  8
1
  6
Continuous
 62
     7
100
AcDbLine
 10
3324.000104
 20
259.557939
 30
0.0
 11
3420.000108
 21
259.557939
 31
0.0
  0
LINE
  5
470
100
AcDbEntity
  8
1
  6
Continuous
 62
     7
100
AcDbLine
 10
3325.326551
 20
266.057939
 30
0.0
 11
3324.000104
 21
298.157943
 31
0.0
  0
LINE
  5
471
100
AcDbEntity
  8
1
  6
Continuous
 62
     7
100
AcDbLine
 10
3420.000108
 20
324.957939
 30
0.0
 11
3580.000116
 21
324.957939
 31
0.0
  0
LINE
  5
472
100
AcDbEntity
  8
1
  6
Continuous
 62
     7
100
AcDbLine
 10
3580.000116
 20
324.957939
 30
0.0
 11
3580.000116
 21
304.957935
 31
0.0
  0
LINE
  5
473
100
AcDbEntity
  8
1
  6
Continuous
 62
     7
100
AcDbLine
 10
3580.000116
 20
304.957935
 30
0.0
 11
3420.000108
 21
304.957935
 31
0.0
  0
LINE
  5
474
100
AcDbEntity
  8
1
  6
CENTER
 62
     7
100
AcDbLine
 10
3560.000117
 20
292.157936
 30
0.0
 11
3560.000117
 21
340.95794
 31
0.0
  0
LINE
  5
475
100
AcDbEntity
  8
1
  6
CENTER
 62
     7
100
AcDbLine
 10
3560.000117
 20
292.157936
 30
0.0
 11
3560.000117
 21
340.95794
 31
0.0
  0
LINE
  5
476
100
AcDbEntity
  8
1
  6
Continuous
 62
     7
100
AcDbLine
 10
3529.400113
 20
324.25794
 30
0.0
 11
3540.600115
 21
338.457937
 31
0.0
  0
ARC
  5
477
100
AcDbEntity
  8
1
  6
Continuous
 62
     7
100
AcDbCircle
 10
3537.000107
 20
340.95794
 30
0.0
 40
4.500001
100
AcDbArc
 50
-32.280863
 51
35.098974
  0
LINE
  5
478
100
AcDbEntity
  8
1
  6
Continuous
 62
     7
100
AcDbLine
 10
3533.800112
 20
353.95794
 30
0.0
 11
3420.000108
 21
353.95794
 31
0.0
  0
LINE
  5
479
100
AcDbEntity
  8
1
  6
Continuous
 62
     7
100
AcDbLine
 10
3533.800112
 20
359.957941
 30
0.0
 11
3420.000108
 21
359.957941
 31
0.0
  0
ARC
  5
47A
100
AcDbEntity
  8
1
  6
Continuous
 62
     7
100
AcDbCircle
 10
3533.800112
 20
356.957941
 30
0.0
 40
3.000001
100
AcDbArc
 50
-89.977713
 51
89.98833
  0
LINE
  5
47B
100
AcDbEntity
  8
1
  6
Continuous
 62
     7
100
AcDbLine
 10
3532.300111
 20
353.95794
 30
0.0
 11
3540.600115
 21
343.457937
 31
0.0
  0
LINE
  5
47C
100
AcDbEntity
  8
1
  6
Continuous
 62
     7
100
AcDbLine
 10
3540.600115
 20
370.457939
 30
0.0
 11
3532.300111
 21
359.957941
 31
0.0
  0
LINE
  5
47D
100
AcDbEntity
  8
1
  6
Continuous
 62
     7
100
AcDbLine
 10
3536.800113
 20
340.95794
 30
0.0
 11
3420.000108
 21
340.95794
 31
0.0
  0
LINE
  5
47E
100
AcDbEntity
  8
1
  6
CENTER
 62
     7
100
AcDbLine
 10
3540.000114
 20
356.957941
 30
0.0
 11
3420.000108
 21
356.957941
 31
0.0
  0
ARC
  5
47F
100
AcDbEntity
  8
1
  6
Continuous
 62
     7
100
AcDbCircle
 10
3537.000107
 20
372.957936
 30
0.0
 40
4.500001
100
AcDbArc
 50
-32.280863
 51
35.098974
  0
LINE
  5
480
100
AcDbEntity
  8
1
  6
Continuous
 62
     7
100
AcDbLine
 10
3532.300111
 20
385.957941
 30
0.0
 11
3540.600115
 21
375.457938
 31
0.0
  0
LINE
  5
481
100
AcDbEntity
  8
1
  6
Continuous
 62
     7
100
AcDbLine
 10
3536.800113
 20
372.957936
 30
0.0
 11
3420.000108
 21
372.957936
 31
0.0
  0
LINE
  5
482
100
AcDbEntity
  8
1
  6
Continuous
 62
     7
100
AcDbLine
 10
3540.600115
 20
370.457939
 30
0.0
 11
3532.300111
 21
359.957941
 31
0.0
  0
LINE
  5
483
100
AcDbEntity
  8
1
  6
Continuous
 62
     7
100
AcDbLine
 10
3548.500112
 20
304.957935
 30
0.0
 11
3548.500112
 21
298.157943
 31
0.0
  0
LINE
  5
484
100
AcDbEntity
  8
1
  6
Continuous
 62
     7
100
AcDbLine
 10
3548.500112
 20
302.657939
 30
0.0
 11
3420.000108
 21
302.657939
 31
0.0
  0
LINE
  5
485
100
AcDbEntity
  8
1
  6
Continuous
 62
     7
100
AcDbLine
 10
3548.500112
 20
301.157938
 30
0.0
 11
3420.000108
 21
301.157938
 31
0.0
  0
LINE
  5
486
100
AcDbEntity
  8
1
  6
Continuous
 62
     7
100
AcDbLine
 10
3548.500112
 20
298.157943
 30
0.0
 11
3420.000108
 21
298.157943
 31
0.0
  0
ARC
  5
487
100
AcDbEntity
  8
1
  6
Continuous
 62
     7
100
AcDbCircle
 10
3516.400108
 20
262.757934
 30
0.0
 40
1.000002
100
AcDbArc
 50
-179.989383
 51
-95.707291
  0
LINE
  5
488
100
AcDbEntity
  8
1
  6
Continuous
 62
     7
100
AcDbLine
 10
3515.500109
 20
266.057939
 30
0.0
 11
3515.400111
 21
262.757934
 31
0.0
  0
LINE
  5
489
100
AcDbEntity
  8
1
  6
Continuous
 62
     7
100
AcDbLine
 10
3516.000113
 20
261.65794
 30
0.0
 11
3420.000108
 21
261.65794
 31
0.0
  0
LINE
  5
48A
100
AcDbEntity
  8
1
  6
Continuous
 62
     7
100
AcDbLine
 10
3516.000113
 20
257.35794
 30
0.0
 11
3420.000108
 21
257.35794
 31
0.0
  0
LINE
  5
48B
100
AcDbEntity
  8
1
  6
Continuous
 62
     7
100
AcDbLine
 10
3515.500109
 20
266.057939
 30
0.0
 11
3420.000108
 21
266.057939
 31
0.0
  0
ARC
  5
48C
100
AcDbEntity
  8
1
  6
Continuous
 62
     7
100
AcDbCircle
 10
3516.000113
 20
259.557939
 30
0.0
 40
2.199999
100
AcDbArc
 50
-89.977713
 51
82.2534
  0
LINE
  5
48D
100
AcDbEntity
  8
1
  6
Continuous
 62
     7
100
AcDbLine
 10
3516.000113
 20
259.557939
 30
0.0
 11
3420.000108
 21
259.557939
 31
0.0
  0
LINE
  5
48E
100
AcDbEntity
  8
1
  6
Continuous
 62
     7
100
AcDbLine
 10
3514.673666
 20
266.057939
 30
0.0
 11
3516.000113
 21
298.157943
 31
0.0
  0
LINE
  5
48F
100
AcDbEntity
  8
1
  6
CENTER
 62
     7
100
AcDbLine
 10
3541.500109
 20
373.057939
 30
0.0
 11
3541.500109
 21
584.957937
 31
0.0
  0
LINE
  5
490
100
AcDbEntity
  8
1
  6
CENTER
 62
     7
100
AcDbLine
 10
3298.500108
 20
373.057939
 30
0.0
 11
3298.500108
 21
584.957937
 31
0.0
  0
LINE
  5
491
100
AcDbEntity
  8
1
  6
CENTER
 62
     7
100
AcDbLine
 10
3420.000108
 20
675.177939
 30
0.0
 11
3420.000108
 21
241.163004
 31
0.0
  0
CIRCLE
  5
492
100
AcDbEntity
  8
1
  6
Continuous
 62
     7
100
AcDbCircle
 10
3420.000108
 20
1011.396805
 30
0.0
 40
160.0
  0
CIRCLE
  5
493
100
AcDbEntity
  8
1
  6
Continuous
 62
     7
100
AcDbCircle
 10
3420.000108
 20
1011.396805
 30
0.0
 40
128.5
  0
CIRCLE
  5
494
100
AcDbEntity
  8
1
  6
Continuous
 62
     7
100
AcDbCircle
 10
3420.000108
 20
1011.396805
 30
0.0
 40
107.5
  0
CIRCLE
  5
495
100
AcDbEntity
  8
1
  6
HIDDEN
 62
     7
100
AcDbCircle
 10
3420.000108
 20
1011.396805
 30
0.0
 40
110.5
  0
LINE
  5
496
100
AcDbEntity
  8
1
  6
CENTER
 62
     7
100
AcDbLine
 10
3420.000108
 20
1183.983434
 30
0.0
 11
3420.000108
 21
832.157943
 31
0.0
  0
LINE
  5
497
100
AcDbEntity
  8
1
  6
CENTER
 62
     7
100
AcDbLine
 10
3238.501988
 20
1011.396805
 30
0.0
 11
3603.848523
 21
1011.396805
 31
0.0
  0
CIRCLE
  5
498
100
AcDbEntity
  8
1
  6
PHANTOM
 62
     7
100
AcDbCircle
 10
3420.000108
 20
1011.396805
 30
0.0
 40
140.0
  0
CIRCLE
  5
499
100
AcDbEntity
  8
1
  6
Continuous
 62
     7
100
AcDbCircle
 10
3420.000108
 20
1151.396805
 30
0.0
 40
11.5
  0
CIRCLE
  5
49A
100
AcDbEntity
  8
1
  6
Continuous
 62
     7
100
AcDbCircle
 10
3321.005159
 20
1110.391754
 30
0.0
 40
11.5
  0
CIRCLE
  5
49B
100
AcDbEntity
  8
1
  6
Continuous
 62
     7
100
AcDbCircle
 10
3280.000108
 20
1011.396805
 30
0.0
 40
11.5
  0
CIRCLE
  5
49C
100
AcDbEntity
  8
1
  6
Continuous
 62
     7
100
AcDbCircle
 10
3321.005159
 20
912.401855
 30
0.0
 40
11.5
  0
CIRCLE
  5
49D
100
AcDbEntity
  8
1
  6
Continuous
 62
     7
100
AcDbCircle
 10
3420.000108
 20
871.396805
 30
0.0
 40
11.5
  0
CIRCLE
  5
49E
100
AcDbEntity
  8
1
  6
Continuous
 62
     7
100
AcDbCircle
 10
3518.995058
 20
912.401855
 30
0.0
 40
11.5
  0
CIRCLE
  5
49F
100
AcDbEntity
  8
1
  6
Continuous
 62
     7
100
AcDbCircle
 10
3560.000108
 20
1011.396805
 30
0.0
 40
11.5
  0
CIRCLE
  5
4A0
100
AcDbEntity
  8
1
  6
Continuous
 62
     7
100
AcDbCircle
 10
3518.995058
 20
1110.391754
 30
0.0
 40
11.5
  0
LINE
  5
4A1
100
AcDbEntity
  8
1
  6
CENTER
 62
     7
100
AcDbLine
 10
3530.729057
 20
1122.125753
 30
0.0
 11
3506.548983
 21
1097.945679
 31
0.0
  0
LINE
  5
4A2
100
AcDbEntity
  8
1
  6
CENTER
 62
     7
100
AcDbLine
 10
3506.548983
 20
924.84793
 30
0.0
 11
3530.729057
 21
900.667856
 31
0.0
  0
LINE
  5
4A3
100
AcDbEntity
  8
1
  6
CENTER
 62
     7
100
AcDbLine
 10
3309.27116
 20
900.667856
 30
0.0
 11
3333.451234
 21
924.84793
 31
0.0
  0
LINE
  5
4A4
100
AcDbEntity
  8
1
  6
CENTER
 62
     7
100
AcDbLine
 10
3309.27116
 20
1122.125753
 30
0.0
 11
3333.451234
 21
1097.945679
 31
0.0
  0
LINE
  5
4A5
100
AcDbEntity
  8
1
  6
CENTER
 62
     7
100
AcDbLine
 10
3867.500123
 20
403.357936
 30
0.0
 11
3867.500123
 21
403.457938
 31
0.0
  0
LINE
  5
4A6
100
AcDbEntity
  8
1
  6
Continuous
 62
     7
100
AcDbLine
 10
3867.500123
 20
647.957945
 30
0.0
 11
3707.500116
 21
647.957945
 31
0.0
  0
LINE
  5
4A7
100
AcDbEntity
  8
1
  6
Continuous
 62
     7
100
AcDbLine
 10
3707.500116
 20
647.957945
 30
0.0
 11
3707.500116
 21
667.957943
 31
0.0
  0
LINE
  5
4A8
100
AcDbEntity
  8
1
  6
Continuous
 62
     7
100
AcDbLine
 10
3707.500116
 20
667.957943
 30
0.0
 11
3867.500123
 21
667.957943
 31
0.0
  0
LINE
  5
4A9
100
AcDbEntity
  8
1
  6
Continuous
 62
     7
100
AcDbLine
 10
3739.000119
 20
667.957943
 30
0.0
 11
3739.000119
 21
673.157943
 31
0.0
  0
LINE
  5
4AA
100
AcDbEntity
  8
1
  6
Continuous
 62
     7
100
AcDbLine
 10
3739.000119
 20
673.157943
 30
0.0
 11
3867.500123
 21
673.157943
 31
0.0
  0
LINE
  5
4AB
100
AcDbEntity
  8
1
  6
Continuous
 62
     7
100
AcDbLine
 10
3739.000119
 20
670.157942
 30
0.0
 11
3867.500123
 21
670.157942
 31
0.0
  0
LINE
  5
4AC
100
AcDbEntity
  8
1
  6
Continuous
 62
     7
100
AcDbLine
 10
3739.000119
 20
669.357941
 30
0.0
 11
3867.500123
 21
669.357941
 31
0.0
  0
LINE
  5
4AD
100
AcDbEntity
  8
1
  6
CENTER
 62
     7
100
AcDbLine
 10
3727.500114
 20
680.757943
 30
0.0
 11
3727.500114
 21
631.957944
 31
0.0
  0
ARC
  5
4AE
100
AcDbEntity
  8
1
  6
Continuous
 62
     7
100
AcDbCircle
 10
3750.500124
 20
631.957944
 30
0.0
 40
4.500001
100
AcDbArc
 50
147.70852
 51
-144.911644
  0
LINE
  5
4AF
100
AcDbEntity
  8
1
  6
Continuous
 62
     7
100
AcDbLine
 10
3753.70012
 20
618.957939
 30
0.0
 11
3867.500123
 21
618.957939
 31
0.0
  0
LINE
  5
4B0
100
AcDbEntity
  8
1
  6
Continuous
 62
     7
100
AcDbLine
 10
3753.70012
 20
612.957943
 30
0.0
 11
3867.500123
 21
612.957943
 31
0.0
  0
ARC
  5
4B1
100
AcDbEntity
  8
1
  6
Continuous
 62
     7
100
AcDbCircle
 10
3753.70012
 20
615.957944
 30
0.0
 40
3.000001
100
AcDbArc
 50
90.01167
 51
-90.022287
  0
LINE
  5
4B2
100
AcDbEntity
  8
1
  6
Continuous
 62
     7
100
AcDbLine
 10
3755.20012
 20
618.957939
 30
0.0
 11
3746.900116
 21
629.457942
 31
0.0
  0
LINE
  5
4B3
100
AcDbEntity
  8
1
  6
Continuous
 62
     7
100
AcDbLine
 10
3746.900116
 20
602.45794
 30
0.0
 11
3755.20012
 21
612.957943
 31
0.0
  0
LINE
  5
4B4
100
AcDbEntity
  8
1
  6
Continuous
 62
     7
100
AcDbLine
 10
3750.700119
 20
631.957944
 30
0.0
 11
3867.500123
 21
631.957944
 31
0.0
  0
LINE
  5
4B5
100
AcDbEntity
  8
1
  6
CENTER
 62
     7
100
AcDbLine
 10
3747.500117
 20
615.957944
 30
0.0
 11
3867.500123
 21
615.957944
 31
0.0
  0
ARC
  5
4B6
100
AcDbEntity
  8
1
  6
Continuous
 62
     7
100
AcDbCircle
 10
3750.500124
 20
599.957937
 30
0.0
 40
4.500001
100
AcDbArc
 50
147.70852
 51
-144.911644
  0
LINE
  5
4B7
100
AcDbEntity
  8
1
  6
Continuous
 62
     7
100
AcDbLine
 10
3755.20012
 20
586.957943
 30
0.0
 11
3746.900116
 21
597.45794
 31
0.0
  0
LINE
  5
4B8
100
AcDbEntity
  8
1
  6
Continuous
 62
     7
100
AcDbLine
 10
3750.700119
 20
599.957937
 30
0.0
 11
3867.500123
 21
599.957937
 31
0.0
  0
LINE
  5
4B9
100
AcDbEntity
  8
1
  6
Continuous
 62
     7
100
AcDbLine
 10
3746.900116
 20
602.45794
 30
0.0
 11
3755.20012
 21
612.957943
 31
0.0
  0
LINE
  5
4BA
100
AcDbEntity
  8
1
  6
CENTER
 62
     7
100
AcDbLine
 10
3727.500114
 20
635.657944
 30
0.0
 11
3727.500114
 21
680.757943
 31
0.0
  0
LINE
  5
4BB
100
AcDbEntity
  8
1
  6
Continuous
 62
     7
100
AcDbLine
 10
3867.500123
 20
647.957945
 30
0.0
 11
4027.50013
 21
647.957945
 31
0.0
  0
LINE
  5
4BC
100
AcDbEntity
  8
1
  6
Continuous
 62
     7
100
AcDbLine
 10
4027.50013
 20
647.957945
 30
0.0
 11
4027.50013
 21
667.957943
 31
0.0
  0
LINE
  5
4BD
100
AcDbEntity
  8
1
  6
Continuous
 62
     7
100
AcDbLine
 10
4027.50013
 20
667.957943
 30
0.0
 11
3867.500123
 21
667.957943
 31
0.0
  0
LINE
  5
4BE
100
AcDbEntity
  8
1
  6
Continuous
 62
     7
100
AcDbLine
 10
3996.000127
 20
667.957943
 30
0.0
 11
3996.000127
 21
673.157943
 31
0.0
  0
LINE
  5
4BF
100
AcDbEntity
  8
1
  6
Continuous
 62
     7
100
AcDbLine
 10
3996.000127
 20
673.157943
 30
0.0
 11
3867.500123
 21
673.157943
 31
0.0
  0
LINE
  5
4C0
100
AcDbEntity
  8
1
  6
Continuous
 62
     7
100
AcDbLine
 10
3996.000127
 20
670.157942
 30
0.0
 11
3867.500123
 21
670.157942
 31
0.0
  0
LINE
  5
4C1
100
AcDbEntity
  8
1
  6
Continuous
 62
     7
100
AcDbLine
 10
3996.000127
 20
669.357941
 30
0.0
 11
3867.500123
 21
669.357941
 31
0.0
  0
ARC
  5
4C2
100
AcDbEntity
  8
1
  6
Continuous
 62
     7
100
AcDbCircle
 10
3984.500122
 20
631.957944
 30
0.0
 40
4.500001
100
AcDbArc
 50
-35.088356
 51
32.29148
  0
LINE
  5
4C3
100
AcDbEntity
  8
1
  6
Continuous
 62
     7
100
AcDbLine
 10
3981.300126
 20
618.957939
 30
0.0
 11
3867.500123
 21
618.957939
 31
0.0
  0
LINE
  5
4C4
100
AcDbEntity
  8
1
  6
Continuous
 62
     7
100
AcDbLine
 10
3981.300126
 20
612.957943
 30
0.0
 11
3867.500123
 21
612.957943
 31
0.0
  0
ARC
  5
4C5
100
AcDbEntity
  8
1
  6
Continuous
 62
     7
100
AcDbCircle
 10
3981.300126
 20
615.957944
 30
0.0
 40
3.000001
100
AcDbArc
 50
-89.977713
 51
89.98833
  0
LINE
  5
4C6
100
AcDbEntity
  8
1
  6
Continuous
 62
     7
100
AcDbLine
 10
3979.800126
 20
618.957939
 30
0.0
 11
3988.10013
 21
629.457942
 31
0.0
  0
LINE
  5
4C7
100
AcDbEntity
  8
1
  6
Continuous
 62
     7
100
AcDbLine
 10
3988.10013
 20
602.45794
 30
0.0
 11
3979.800126
 21
612.957943
 31
0.0
  0
LINE
  5
4C8
100
AcDbEntity
  8
1
  6
Continuous
 62
     7
100
AcDbLine
 10
3984.300127
 20
631.957944
 30
0.0
 11
3867.500123
 21
631.957944
 31
0.0
  0
LINE
  5
4C9
100
AcDbEntity
  8
1
  6
CENTER
 62
     7
100
AcDbLine
 10
3987.500128
 20
615.957944
 30
0.0
 11
3867.500123
 21
615.957944
 31
0.0
  0
ARC
  5
4CA
100
AcDbEntity
  8
1
  6
Continuous
 62
     7
100
AcDbCircle
 10
3984.500122
 20
599.957937
 30
0.0
 40
4.500001
100
AcDbArc
 50
-35.088356
 51
32.29148
  0
LINE
  5
4CB
100
AcDbEntity
  8
1
  6
Continuous
 62
     7
100
AcDbLine
 10
3979.800126
 20
586.957943
 30
0.0
 11
3988.10013
 21
597.45794
 31
0.0
  0
LINE
  5
4CC
100
AcDbEntity
  8
1
  6
Continuous
 62
     7
100
AcDbLine
 10
3984.300127
 20
599.957937
 30
0.0
 11
3867.500123
 21
599.957937
 31
0.0
  0
LINE
  5
4CD
100
AcDbEntity
  8
1
  6
Continuous
 62
     7
100
AcDbLine
 10
3988.10013
 20
602.45794
 30
0.0
 11
3979.800126
 21
612.957943
 31
0.0
  0
LINE
  5
4CE
100
AcDbEntity
  8
1
  6
Continuous
 62
     7
100
AcDbLine
 10
3977.45224
 20
647.957945
 30
0.0
 11
3988.10013
 21
634.457941
 31
0.0
  0
LINE
  5
4CF
100
AcDbEntity
  8
1
  6
Continuous
 62
     7
100
AcDbLine
 10
3757.548006
 20
647.957945
 30
0.0
 11
3746.900116
 21
634.457941
 31
0.0
  0
LINE
  5
4D0
100
AcDbEntity
  8
1
  6
CENTER
 62
     7
100
AcDbLine
 10
4007.500132
 20
680.757943
 30
0.0
 11
4007.500132
 21
631.957944
 31
0.0
  0
LINE
  5
4D1
100
AcDbEntity
  8
1
  6
CENTER
 62
     7
100
AcDbLine
 10
4007.500132
 20
635.657944
 30
0.0
 11
4007.500132
 21
680.757943
 31
0.0
  0
LINE
  5
4D2
100
AcDbEntity
  8
1
  6
Continuous
 62
     7
100
AcDbLine
 10
3867.500123
 20
324.957939
 30
0.0
 11
3707.500116
 21
324.957939
 31
0.0
  0
LINE
  5
4D3
100
AcDbEntity
  8
1
  6
Continuous
 62
     7
100
AcDbLine
 10
3707.500116
 20
324.957939
 30
0.0
 11
3707.500116
 21
304.957935
 31
0.0
  0
LINE
  5
4D4
100
AcDbEntity
  8
1
  6
Continuous
 62
     7
100
AcDbLine
 10
3707.500116
 20
304.957935
 30
0.0
 11
3867.500123
 21
304.957935
 31
0.0
  0
LINE
  5
4D5
100
AcDbEntity
  8
1
  6
CENTER
 62
     7
100
AcDbLine
 10
3727.500114
 20
292.157936
 30
0.0
 11
3727.500114
 21
340.95794
 31
0.0
  0
LINE
  5
4D6
100
AcDbEntity
  8
1
  6
CENTER
 62
     7
100
AcDbLine
 10
3727.500114
 20
292.157936
 30
0.0
 11
3727.500114
 21
340.95794
 31
0.0
  0
LINE
  5
4D7
100
AcDbEntity
  8
1
  6
Continuous
 62
     7
100
AcDbLine
 10
3758.100118
 20
324.25794
 30
0.0
 11
3746.900116
 21
338.457937
 31
0.0
  0
ARC
  5
4D8
100
AcDbEntity
  8
1
  6
Continuous
 62
     7
100
AcDbCircle
 10
3750.500124
 20
340.95794
 30
0.0
 40
4.500001
100
AcDbArc
 50
144.901026
 51
-147.719137
  0
LINE
  5
4D9
100
AcDbEntity
  8
1
  6
Continuous
 62
     7
100
AcDbLine
 10
3753.70012
 20
353.95794
 30
0.0
 11
3867.500123
 21
353.95794
 31
0.0
  0
LINE
  5
4DA
100
AcDbEntity
  8
1
  6
Continuous
 62
     7
100
AcDbLine
 10
3753.70012
 20
359.957941
 30
0.0
 11
3867.500123
 21
359.957941
 31
0.0
  0
ARC
  5
4DB
100
AcDbEntity
  8
1
  6
Continuous
 62
     7
100
AcDbCircle
 10
3753.70012
 20
356.957941
 30
0.0
 40
3.000001
100
AcDbArc
 50
90.01167
 51
-90.022287
  0
LINE
  5
4DC
100
AcDbEntity
  8
1
  6
Continuous
 62
     7
100
AcDbLine
 10
3755.20012
 20
353.95794
 30
0.0
 11
3746.900116
 21
343.457937
 31
0.0
  0
LINE
  5
4DD
100
AcDbEntity
  8
1
  6
Continuous
 62
     7
100
AcDbLine
 10
3746.900116
 20
370.457939
 30
0.0
 11
3755.20012
 21
359.957941
 31
0.0
  0
LINE
  5
4DE
100
AcDbEntity
  8
1
  6
Continuous
 62
     7
100
AcDbLine
 10
3750.700119
 20
340.95794
 30
0.0
 11
3867.500123
 21
340.95794
 31
0.0
  0
LINE
  5
4DF
100
AcDbEntity
  8
1
  6
CENTER
 62
     7
100
AcDbLine
 10
3747.500117
 20
356.957941
 30
0.0
 11
3867.500123
 21
356.957941
 31
0.0
  0
ARC
  5
4E0
100
AcDbEntity
  8
1
  6
Continuous
 62
     7
100
AcDbCircle
 10
3750.500124
 20
372.957936
 30
0.0
 40
4.500001
100
AcDbArc
 50
144.901026
 51
-147.719137
  0
LINE
  5
4E1
100
AcDbEntity
  8
1
  6
Continuous
 62
     7
100
AcDbLine
 10
3755.20012
 20
385.957941
 30
0.0
 11
3746.900116
 21
375.457938
 31
0.0
  0
LINE
  5
4E2
100
AcDbEntity
  8
1
  6
Continuous
 62
     7
100
AcDbLine
 10
3750.700119
 20
372.957936
 30
0.0
 11
3867.500123
 21
372.957936
 31
0.0
  0
LINE
  5
4E3
100
AcDbEntity
  8
1
  6
Continuous
 62
     7
100
AcDbLine
 10
3746.900116
 20
370.457939
 30
0.0
 11
3755.20012
 21
359.957941
 31
0.0
  0
LINE
  5
4E4
100
AcDbEntity
  8
1
  6
Continuous
 62
     7
100
AcDbLine
 10
3739.000119
 20
304.957935
 30
0.0
 11
3739.000119
 21
298.157943
 31
0.0
  0
LINE
  5
4E5
100
AcDbEntity
  8
1
  6
Continuous
 62
     7
100
AcDbLine
 10
3739.000119
 20
302.657939
 30
0.0
 11
3867.500123
 21
302.657939
 31
0.0
  0
LINE
  5
4E6
100
AcDbEntity
  8
1
  6
Continuous
 62
     7
100
AcDbLine
 10
3739.000119
 20
301.157938
 30
0.0
 11
3867.500123
 21
301.157938
 31
0.0
  0
LINE
  5
4E7
100
AcDbEntity
  8
1
  6
Continuous
 62
     7
100
AcDbLine
 10
3739.000119
 20
298.157943
 30
0.0
 11
3867.500123
 21
298.157943
 31
0.0
  0
ARC
  5
4E8
100
AcDbEntity
  8
1
  6
Continuous
 62
     7
100
AcDbCircle
 10
3771.100123
 20
262.757934
 30
0.0
 40
1.000002
100
AcDbArc
 50
-84.292709
 51
-0.010617
  0
LINE
  5
4E9
100
AcDbEntity
  8
1
  6
Continuous
 62
     7
100
AcDbLine
 10
3772.000122
 20
266.057939
 30
0.0
 11
3772.10012
 21
262.757934
 31
0.0
  0
LINE
  5
4EA
100
AcDbEntity
  8
1
  6
Continuous
 62
     7
100
AcDbLine
 10
3771.500119
 20
261.65794
 30
0.0
 11
3867.500123
 21
261.65794
 31
0.0
  0
LINE
  5
4EB
100
AcDbEntity
  8
1
  6
Continuous
 62
     7
100
AcDbLine
 10
3771.500119
 20
257.35794
 30
0.0
 11
3867.500123
 21
257.35794
 31
0.0
  0
LINE
  5
4EC
100
AcDbEntity
  8
1
  6
Continuous
 62
     7
100
AcDbLine
 10
3772.000122
 20
266.057939
 30
0.0
 11
3867.500123
 21
266.057939
 31
0.0
  0
ARC
  5
4ED
100
AcDbEntity
  8
1
  6
Continuous
 62
     7
100
AcDbCircle
 10
3771.500119
 20
259.557939
 30
0.0
 40
2.199999
100
AcDbArc
 50
97.7466
 51
-90.022287
  0
LINE
  5
4EE
100
AcDbEntity
  8
1
  6
Continuous
 62
     7
100
AcDbLine
 10
3771.500119
 20
259.557939
 30
0.0
 11
3867.500123
 21
259.557939
 31
0.0
  0
LINE
  5
4EF
100
AcDbEntity
  8
1
  6
Continuous
 62
     7
100
AcDbLine
 10
3772.826565
 20
266.057939
 30
0.0
 11
3771.500119
 21
298.157943
 31
0.0
  0
LINE
  5
4F0
100
AcDbEntity
  8
1
  6
Continuous
 62
     7
100
AcDbLine
 10
3867.500123
 20
324.957939
 30
0.0
 11
4027.50013
 21
324.957939
 31
0.0
  0
LINE
  5
4F1
100
AcDbEntity
  8
1
  6
Continuous
 62
     7
100
AcDbLine
 10
4027.50013
 20
324.957939
 30
0.0
 11
4027.50013
 21
304.957935
 31
0.0
  0
LINE
  5
4F2
100
AcDbEntity
  8
1
  6
Continuous
 62
     7
100
AcDbLine
 10
4027.50013
 20
304.957935
 30
0.0
 11
3867.500123
 21
304.957935
 31
0.0
  0
LINE
  5
4F3
100
AcDbEntity
  8
1
  6
CENTER
 62
     7
100
AcDbLine
 10
4007.500132
 20
292.157936
 30
0.0
 11
4007.500132
 21
340.95794
 31
0.0
  0
LINE
  5
4F4
100
AcDbEntity
  8
1
  6
CENTER
 62
     7
100
AcDbLine
 10
4007.500132
 20
292.157936
 30
0.0
 11
4007.500132
 21
340.95794
 31
0.0
  0
LINE
  5
4F5
100
AcDbEntity
  8
1
  6
Continuous
 62
     7
100
AcDbLine
 10
3976.900128
 20
324.25794
 30
0.0
 11
3988.10013
 21
338.457937
 31
0.0
  0
ARC
  5
4F6
100
AcDbEntity
  8
1
  6
Continuous
 62
     7
100
AcDbCircle
 10
3984.500122
 20
340.95794
 30
0.0
 40
4.500001
100
AcDbArc
 50
-32.280863
 51
35.098974
  0
LINE
  5
4F7
100
AcDbEntity
  8
1
  6
Continuous
 62
     7
100
AcDbLine
 10
3981.300126
 20
353.95794
 30
0.0
 11
3867.500123
 21
353.95794
 31
0.0
  0
LINE
  5
4F8
100
AcDbEntity
  8
1
  6
Continuous
 62
     7
100
AcDbLine
 10
3981.300126
 20
359.957941
 30
0.0
 11
3867.500123
 21
359.957941
 31
0.0
  0
ARC
  5
4F9
100
AcDbEntity
  8
1
  6
Continuous
 62
     7
100
AcDbCircle
 10
3981.300126
 20
356.957941
 30
0.0
 40
3.000001
100
AcDbArc
 50
-89.977713
 51
89.98833
  0
LINE
  5
4FA
100
AcDbEntity
  8
1
  6
Continuous
 62
     7
100
AcDbLine
 10
3979.800126
 20
353.95794
 30
0.0
 11
3988.10013
 21
343.457937
 31
0.0
  0
LINE
  5
4FB
100
AcDbEntity
  8
1
  6
Continuous
 62
     7
100
AcDbLine
 10
3988.10013
 20
370.457939
 30
0.0
 11
3979.800126
 21
359.957941
 31
0.0
  0
LINE
  5
4FC
100
AcDbEntity
  8
1
  6
Continuous
 62
     7
100
AcDbLine
 10
3984.300127
 20
340.95794
 30
0.0
 11
3867.500123
 21
340.95794
 31
0.0
  0
LINE
  5
4FD
100
AcDbEntity
  8
1
  6
CENTER
 62
     7
100
AcDbLine
 10
3987.500128
 20
356.957941
 30
0.0
 11
3867.500123
 21
356.957941
 31
0.0
  0
ARC
  5
4FE
100
AcDbEntity
  8
1
  6
Continuous
 62
     7
100
AcDbCircle
 10
3984.500122
 20
372.957936
 30
0.0
 40
4.500001
100
AcDbArc
 50
-32.280863
 51
35.098974
  0
LINE
  5
4FF
100
AcDbEntity
  8
1
  6
Continuous
 62
     7
100
AcDbLine
 10
3979.800126
 20
385.957941
 30
0.0
 11
3988.10013
 21
375.457938
 31
0.0
  0
LINE
  5
500
100
AcDbEntity
  8
1
  6
Continuous
 62
     7
100
AcDbLine
 10
3984.300127
 20
372.957936
 30
0.0
 11
3867.500123
 21
372.957936
 31
0.0
  0
LINE
  5
501
100
AcDbEntity
  8
1
  6
Continuous
 62
     7
100
AcDbLine
 10
3988.10013
 20
370.457939
 30
0.0
 11
3979.800126
 21
359.957941
 31
0.0
  0
LINE
  5
502
100
AcDbEntity
  8
1
  6
Continuous
 62
     7
100
AcDbLine
 10
3996.000127
 20
304.957935
 30
0.0
 11
3996.000127
 21
298.157943
 31
0.0
  0
LINE
  5
503
100
AcDbEntity
  8
1
  6
Continuous
 62
     7
100
AcDbLine
 10
3996.000127
 20
302.657939
 30
0.0
 11
3867.500123
 21
302.657939
 31
0.0
  0
LINE
  5
504
100
AcDbEntity
  8
1
  6
Continuous
 62
     7
100
AcDbLine
 10
3996.000127
 20
301.157938
 30
0.0
 11
3867.500123
 21
301.157938
 31
0.0
  0
LINE
  5
505
100
AcDbEntity
  8
1
  6
Continuous
 62
     7
100
AcDbLine
 10
3996.000127
 20
298.157943
 30
0.0
 11
3867.500123
 21
298.157943
 31
0.0
  0
ARC
  5
506
100
AcDbEntity
  8
1
  6
Continuous
 62
     7
100
AcDbCircle
 10
3963.900123
 20
262.757934
 30
0.0
 40
1.000002
100
AcDbArc
 50
-179.989383
 51
-95.707291
  0
LINE
  5
507
100
AcDbEntity
  8
1
  6
Continuous
 62
     7
100
AcDbLine
 10
3963.000123
 20
266.057939
 30
0.0
 11
3962.900126
 21
262.757934
 31
0.0
  0
LINE
  5
508
100
AcDbEntity
  8
1
  6
Continuous
 62
     7
100
AcDbLine
 10
3963.500127
 20
261.65794
 30
0.0
 11
3867.500123
 21
261.65794
 31
0.0
  0
LINE
  5
509
100
AcDbEntity
  8
1
  6
Continuous
 62
     7
100
AcDbLine
 10
3963.500127
 20
257.35794
 30
0.0
 11
3867.500123
 21
257.35794
 31
0.0
  0
LINE
  5
50A
100
AcDbEntity
  8
1
  6
Continuous
 62
     7
100
AcDbLine
 10
3963.000123
 20
266.057939
 30
0.0
 11
3867.500123
 21
266.057939
 31
0.0
  0
ARC
  5
50B
100
AcDbEntity
  8
1
  6
Continuous
 62
     7
100
AcDbCircle
 10
3963.500127
 20
259.557939
 30
0.0
 40
2.199999
100
AcDbArc
 50
-89.977713
 51
82.2534
  0
LINE
  5
50C
100
AcDbEntity
  8
1
  6
Continuous
 62
     7
100
AcDbLine
 10
3963.500127
 20
259.557939
 30
0.0
 11
3867.500123
 21
259.557939
 31
0.0
  0
LINE
  5
50D
100
AcDbEntity
  8
1
  6
Continuous
 62
     7
100
AcDbLine
 10
3962.173681
 20
266.057939
 30
0.0
 11
3963.500127
 21
298.157943
 31
0.0
  0
LINE
  5
50E
100
AcDbEntity
  8
1
  6
CENTER
 62
     7
100
AcDbLine
 10
3746.000123
 20
373.057939
 30
0.0
 11
3746.000123
 21
599.957937
 31
0.0
  0
LINE
  5
50F
100
AcDbEntity
  8
1
  6
CENTER
 62
     7
100
AcDbLine
 10
3989.000123
 20
373.057939
 30
0.0
 11
3989.000123
 21
599.957937
 31
0.0
  0
LINE
  5
510
100
AcDbEntity
  8
1
  6
CENTER
 62
     7
100
AcDbLine
 10
3867.500123
 20
690.177939
 30
0.0
 11
3867.500123
 21
241.163004
 31
0.0
  0
CIRCLE
  5
511
100
AcDbEntity
  8
1
  6
Continuous
 62
     7
100
AcDbCircle
 10
3867.500123
 20
1026.396805
 30
0.0
 40
160.0
  0
CIRCLE
  5
512
100
AcDbEntity
  8
1
  6
Continuous
 62
     7
100
AcDbCircle
 10
3867.500123
 20
1026.396805
 30
0.0
 40
128.5
  0
CIRCLE
  5
513
100
AcDbEntity
  8
1
  6
Continuous
 62
     7
100
AcDbCircle
 10
3867.500123
 20
1026.396805
 30
0.0
 40
107.5
  0
CIRCLE
  5
514
100
AcDbEntity
  8
1
  6
HIDDEN
 62
     7
100
AcDbCircle
 10
3867.500123
 20
1026.396805
 30
0.0
 40
110.5
  0
LINE
  5
515
100
AcDbEntity
  8
1
  6
CENTER
 62
     7
100
AcDbLine
 10
3867.500123
 20
1198.983434
 30
0.0
 11
3867.500123
 21
847.157943
 31
0.0
  0
LINE
  5
516
100
AcDbEntity
  8
1
  6
CENTER
 62
     7
100
AcDbLine
 10
3686.002002
 20
1026.396805
 30
0.0
 11
4051.348537
 21
1026.396805
 31
0.0
  0
CIRCLE
  5
517
100
AcDbEntity
  8
1
  6
PHANTOM
 62
     7
100
AcDbCircle
 10
3867.500123
 20
1026.396805
 30
0.0
 40
140.0
  0
CIRCLE
  5
518
100
AcDbEntity
  8
1
  6
Continuous
 62
     7
100
AcDbCircle
 10
3867.500123
 20
1166.396805
 30
0.0
 40
11.5
  0
CIRCLE
  5
519
100
AcDbEntity
  8
1
  6
Continuous
 62
     7
100
AcDbCircle
 10
3768.505174
 20
1125.391754
 30
0.0
 40
11.5
  0
CIRCLE
  5
51A
100
AcDbEntity
  8
1
  6
Continuous
 62
     7
100
AcDbCircle
 10
3727.500123
 20
1026.396805
 30
0.0
 40
11.5
  0
CIRCLE
  5
51B
100
AcDbEntity
  8
1
  6
Continuous
 62
     7
100
AcDbCircle
 10
3768.505174
 20
927.401855
 30
0.0
 40
11.5
  0
CIRCLE
  5
51C
100
AcDbEntity
  8
1
  6
Continuous
 62
     7
100
AcDbCircle
 10
3867.500123
 20
886.396805
 30
0.0
 40
11.5
  0
CIRCLE
  5
51D
100
AcDbEntity
  8
1
  6
Continuous
 62
     7
100
AcDbCircle
 10
3966.495072
 20
927.401855
 30
0.0
 40
11.5
  0
CIRCLE
  5
51E
100
AcDbEntity
  8
1
  6
Continuous
 62
     7
100
AcDbCircle
 10
4007.500123
 20
1026.396805
 30
0.0
 40
11.5
  0
CIRCLE
  5
51F
100
AcDbEntity
  8
1
  6
Continuous
 62
     7
100
AcDbCircle
 10
3966.495072
 20
1125.391754
 30
0.0
 40
11.5
  0
LINE
  5
520
100
AcDbEntity
  8
1
  6
CENTER
 62
     7
100
AcDbLine
 10
3978.229072
 20
1137.125753
 30
0.0
 11
3954.048998
 21
1112.945679
 31
0.0
  0
LINE
  5
521
100
AcDbEntity
  8
1
  6
CENTER
 62
     7
100
AcDbLine
 10
3954.048997
 20
939.84793
 30
0.0
 11
3978.229071
 21
915.667856
 31
0.0
  0
LINE
  5
522
100
AcDbEntity
  8
1
  6
CENTER
 62
     7
100
AcDbLine
 10
3756.771174
 20
915.667856
 30
0.0
 11
3780.951248
 21
939.84793
 31
0.0
  0
LINE
  5
523
100
AcDbEntity
  8
1
  6
CENTER
 62
     7
100
AcDbLine
 10
3756.771174
 20
1137.125753
 30
0.0
 11
3780.951248
 21
1112.945679
 31
0.0
  0
LINE
  5
524
100
AcDbEntity
  8
1
  6
CENTER
 62
     7
100
AcDbLine
 10
4315.000137
 20
418.357936
 30
0.0
 11
4315.000137
 21
418.457938
 31
0.0
  0
LINE
  5
525
100
AcDbEntity
  8
1
  6
Continuous
 62
     7
100
AcDbLine
 10
4315.000137
 20
662.957945
 30
0.0
 11
4155.00013
 21
662.957945
 31
0.0
  0
LINE
  5
526
100
AcDbEntity
  8
1
  6
Continuous
 62
     7
100
AcDbLine
 10
4155.00013
 20
662.957945
 30
0.0
 11
4155.00013
 21
682.957943
 31
0.0
  0
LINE
  5
527
100
AcDbEntity
  8
1
  6
Continuous
 62
     7
100
AcDbLine
 10
4155.00013
 20
682.957943
 30
0.0
 11
4315.000137
 21
682.957943
 31
0.0
  0
LINE
  5
528
100
AcDbEntity
  8
1
  6
Continuous
 62
     7
100
AcDbLine
 10
4186.500133
 20
682.957943
 30
0.0
 11
4186.500133
 21
688.157943
 31
0.0
  0
LINE
  5
529
100
AcDbEntity
  8
1
  6
Continuous
 62
     7
100
AcDbLine
 10
4186.500133
 20
688.157943
 30
0.0
 11
4315.000137
 21
688.157943
 31
0.0
  0
LINE
  5
52A
100
AcDbEntity
  8
1
  6
Continuous
 62
     7
100
AcDbLine
 10
4186.500133
 20
685.157942
 30
0.0
 11
4315.000137
 21
685.157942
 31
0.0
  0
LINE
  5
52B
100
AcDbEntity
  8
1
  6
Continuous
 62
     7
100
AcDbLine
 10
4186.500133
 20
684.357941
 30
0.0
 11
4315.000137
 21
684.357941
 31
0.0
  0
LINE
  5
52C
100
AcDbEntity
  8
1
  6
CENTER
 62
     7
100
AcDbLine
 10
4175.000128
 20
695.757943
 30
0.0
 11
4175.000128
 21
646.957944
 31
0.0
  0
ARC
  5
52D
100
AcDbEntity
  8
1
  6
Continuous
 62
     7
100
AcDbCircle
 10
4198.000138
 20
646.957944
 30
0.0
 40
4.500001
100
AcDbArc
 50
147.70852
 51
-144.911644
  0
LINE
  5
52E
100
AcDbEntity
  8
1
  6
Continuous
 62
     7
100
AcDbLine
 10
4201.200134
 20
633.957939
 30
0.0
 11
4315.000137
 21
633.957939
 31
0.0
  0
LINE
  5
52F
100
AcDbEntity
  8
1
  6
Continuous
 62
     7
100
AcDbLine
 10
4201.200134
 20
627.957943
 30
0.0
 11
4315.000137
 21
627.957943
 31
0.0
  0
ARC
  5
530
100
AcDbEntity
  8
1
  6
Continuous
 62
     7
100
AcDbCircle
 10
4201.200134
 20
630.957944
 30
0.0
 40
3.000001
100
AcDbArc
 50
90.01167
 51
-90.022287
  0
LINE
  5
531
100
AcDbEntity
  8
1
  6
Continuous
 62
     7
100
AcDbLine
 10
4202.700134
 20
633.957939
 30
0.0
 11
4194.400131
 21
644.457942
 31
0.0
  0
LINE
  5
532
100
AcDbEntity
  8
1
  6
Continuous
 62
     7
100
AcDbLine
 10
4194.400131
 20
617.45794
 30
0.0
 11
4202.700134
 21
627.957943
 31
0.0
  0
LINE
  5
533
100
AcDbEntity
  8
1
  6
Continuous
 62
     7
100
AcDbLine
 10
4198.200133
 20
646.957944
 30
0.0
 11
4315.000137
 21
646.957944
 31
0.0
  0
LINE
  5
534
100
AcDbEntity
  8
1
  6
CENTER
 62
     7
100
AcDbLine
 10
4195.000132
 20
630.957944
 30
0.0
 11
4315.000137
 21
630.957944
 31
0.0
  0
ARC
  5
535
100
AcDbEntity
  8
1
  6
Continuous
 62
     7
100
AcDbCircle
 10
4198.000138
 20
614.957937
 30
0.0
 40
4.500001
100
AcDbArc
 50
147.70852
 51
-144.911644
  0
LINE
  5
536
100
AcDbEntity
  8
1
  6
Continuous
 62
     7
100
AcDbLine
 10
4202.700134
 20
601.957943
 30
0.0
 11
4194.400131
 21
612.45794
 31
0.0
  0
LINE
  5
537
100
AcDbEntity
  8
1
  6
Continuous
 62
     7
100
AcDbLine
 10
4198.200133
 20
614.957937
 30
0.0
 11
4315.000137
 21
614.957937
 31
0.0
  0
LINE
  5
538
100
AcDbEntity
  8
1
  6
Continuous
 62
     7
100
AcDbLine
 10
4194.400131
 20
617.45794
 30
0.0
 11
4202.700134
 21
627.957943
 31
0.0
  0
LINE
  5
539
100
AcDbEntity
  8
1
  6
CENTER
 62
     7
100
AcDbLine
 10
4175.000128
 20
650.657944
 30
0.0
 11
4175.000128
 21
695.757943
 31
0.0
  0
LINE
  5
53A
100
AcDbEntity
  8
1
  6
Continuous
 62
     7
100
AcDbLine
 10
4315.000137
 20
662.957945
 30
0.0
 11
4475.000145
 21
662.957945
 31
0.0
  0
LINE
  5
53B
100
AcDbEntity
  8
1
  6
Continuous
 62
     7
100
AcDbLine
 10
4475.000145
 20
662.957945
 30
0.0
 11
4475.000145
 21
682.957943
 31
0.0
  0
LINE
  5
53C
100
AcDbEntity
  8
1
  6
Continuous
 62
     7
100
AcDbLine
 10
4475.000145
 20
682.957943
 30
0.0
 11
4315.000137
 21
682.957943
 31
0.0
  0
LINE
  5
53D
100
AcDbEntity
  8
1
  6
Continuous
 62
     7
100
AcDbLine
 10
4443.500141
 20
682.957943
 30
0.0
 11
4443.500141
 21
688.157943
 31
0.0
  0
LINE
  5
53E
100
AcDbEntity
  8
1
  6
Continuous
 62
     7
100
AcDbLine
 10
4443.500141
 20
688.157943
 30
0.0
 11
4315.000137
 21
688.157943
 31
0.0
  0
LINE
  5
53F
100
AcDbEntity
  8
1
  6
Continuous
 62
     7
100
AcDbLine
 10
4443.500141
 20
685.157942
 30
0.0
 11
4315.000137
 21
685.157942
 31
0.0
  0
LINE
  5
540
100
AcDbEntity
  8
1
  6
Continuous
 62
     7
100
AcDbLine
 10
4443.500141
 20
684.357941
 30
0.0
 11
4315.000137
 21
684.357941
 31
0.0
  0
ARC
  5
541
100
AcDbEntity
  8
1
  6
Continuous
 62
     7
100
AcDbCircle
 10
4432.000136
 20
646.957944
 30
0.0
 40
4.500001
100
AcDbArc
 50
-35.088356
 51
32.29148
  0
LINE
  5
542
100
AcDbEntity
  8
1
  6
Continuous
 62
     7
100
AcDbLine
 10
4428.800141
 20
633.957939
 30
0.0
 11
4315.000137
 21
633.957939
 31
0.0
  0
LINE
  5
543
100
AcDbEntity
  8
1
  6
Continuous
 62
     7
100
AcDbLine
 10
4428.800141
 20
627.957943
 30
0.0
 11
4315.000137
 21
627.957943
 31
0.0
  0
ARC
  5
544
100
AcDbEntity
  8
1
  6
Continuous
 62
     7
100
AcDbCircle
 10
4428.800141
 20
630.957944
 30
0.0
 40
3.000001
100
AcDbArc
 50
-89.977713
 51
89.98833
  0
LINE
  5
545
100
AcDbEntity
  8
1
  6
Continuous
 62
     7
100
AcDbLine
 10
4427.30014
 20
633.957939
 30
0.0
 11
4435.600144
 21
644.457942
 31
0.0
  0
LINE
  5
546
100
AcDbEntity
  8
1
  6
Continuous
 62
     7
100
AcDbLine
 10
4435.600144
 20
617.45794
 30
0.0
 11
4427.30014
 21
627.957943
 31
0.0
  0
LINE
  5
547
100
AcDbEntity
  8
1
  6
Continuous
 62
     7
100
AcDbLine
 10
4431.800141
 20
646.957944
 30
0.0
 11
4315.000137
 21
646.957944
 31
0.0
  0
LINE
  5
548
100
AcDbEntity
  8
1
  6
CENTER
 62
     7
100
AcDbLine
 10
4435.000143
 20
630.957944
 30
0.0
 11
4315.000137
 21
630.957944
 31
0.0
  0
ARC
  5
549
100
AcDbEntity
  8
1
  6
Continuous
 62
     7
100
AcDbCircle
 10
4432.000136
 20
614.957937
 30
0.0
 40
4.500001
100
AcDbArc
 50
-35.088356
 51
32.29148
  0
LINE
  5
54A
100
AcDbEntity
  8
1
  6
Continuous
 62
     7
100
AcDbLine
 10
4427.30014
 20
601.957943
 30
0.0
 11
4435.600144
 21
612.45794
 31
0.0
  0
LINE
  5
54B
100
AcDbEntity
  8
1
  6
Continuous
 62
     7
100
AcDbLine
 10
4431.800141
 20
614.957937
 30
0.0
 11
4315.000137
 21
614.957937
 31
0.0
  0
LINE
  5
54C
100
AcDbEntity
  8
1
  6
Continuous
 62
     7
100
AcDbLine
 10
4435.600144
 20
617.45794
 30
0.0
 11
4427.30014
 21
627.957943
 31
0.0
  0
LINE
  5
54D
100
AcDbEntity
  8
1
  6
Continuous
 62
     7
100
AcDbLine
 10
4424.952254
 20
662.957945
 30
0.0
 11
4435.600144
 21
649.457941
 31
0.0
  0
LINE
  5
54E
100
AcDbEntity
  8
1
  6
Continuous
 62
     7
100
AcDbLine
 10
4205.048021
 20
662.957945
 30
0.0
 11
4194.400131
 21
649.457941
 31
0.0
  0
LINE
  5
54F
100
AcDbEntity
  8
1
  6
CENTER
 62
     7
100
AcDbLine
 10
4455.000146
 20
695.757943
 30
0.0
 11
4455.000146
 21
646.957944
 31
0.0
  0
LINE
  5
550
100
AcDbEntity
  8
1
  6
CENTER
 62
     7
100
AcDbLine
 10
4455.000146
 20
650.657944
 30
0.0
 11
4455.000146
 21
695.757943
 31
0.0
  0
LINE
  5
551
100
AcDbEntity
  8
1
  6
Continuous
 62
     7
100
AcDbLine
 10
4315.000137
 20
324.957939
 30
0.0
 11
4155.00013
 21
324.957939
 31
0.0
  0
LINE
  5
552
100
AcDbEntity
  8
1
  6
Continuous
 62
     7
100
AcDbLine
 10
4155.00013
 20
324.957939
 30
0.0
 11
4155.00013
 21
304.957935
 31
0.0
  0
LINE
  5
553
100
AcDbEntity
  8
1
  6
Continuous
 62
     7
100
AcDbLine
 10
4155.00013
 20
304.957935
 30
0.0
 11
4315.000137
 21
304.957935
 31
0.0
  0
LINE
  5
554
100
AcDbEntity
  8
1
  6
CENTER
 62
     7
100
AcDbLine
 10
4175.000128
 20
292.157936
 30
0.0
 11
4175.000128
 21
340.95794
 31
0.0
  0
LINE
  5
555
100
AcDbEntity
  8
1
  6
CENTER
 62
     7
100
AcDbLine
 10
4175.000128
 20
292.157936
 30
0.0
 11
4175.000128
 21
340.95794
 31
0.0
  0
LINE
  5
556
100
AcDbEntity
  8
1
  6
Continuous
 62
     7
100
AcDbLine
 10
4205.600132
 20
324.25794
 30
0.0
 11
4194.400131
 21
338.457937
 31
0.0
  0
ARC
  5
557
100
AcDbEntity
  8
1
  6
Continuous
 62
     7
100
AcDbCircle
 10
4198.000138
 20
340.95794
 30
0.0
 40
4.500001
100
AcDbArc
 50
144.901026
 51
-147.719137
  0
LINE
  5
558
100
AcDbEntity
  8
1
  6
Continuous
 62
     7
100
AcDbLine
 10
4201.200134
 20
353.95794
 30
0.0
 11
4315.000137
 21
353.95794
 31
0.0
  0
LINE
  5
559
100
AcDbEntity
  8
1
  6
Continuous
 62
     7
100
AcDbLine
 10
4201.200134
 20
359.957941
 30
0.0
 11
4315.000137
 21
359.957941
 31
0.0
  0
ARC
  5
55A
100
AcDbEntity
  8
1
  6
Continuous
 62
     7
100
AcDbCircle
 10
4201.200134
 20
356.957941
 30
0.0
 40
3.000001
100
AcDbArc
 50
90.01167
 51
-90.022287
  0
LINE
  5
55B
100
AcDbEntity
  8
1
  6
Continuous
 62
     7
100
AcDbLine
 10
4202.700134
 20
353.95794
 30
0.0
 11
4194.400131
 21
343.457937
 31
0.0
  0
LINE
  5
55C
100
AcDbEntity
  8
1
  6
Continuous
 62
     7
100
AcDbLine
 10
4194.400131
 20
370.457939
 30
0.0
 11
4202.700134
 21
359.957941
 31
0.0
  0
LINE
  5
55D
100
AcDbEntity
  8
1
  6
Continuous
 62
     7
100
AcDbLine
 10
4198.200133
 20
340.95794
 30
0.0
 11
4315.000137
 21
340.95794
 31
0.0
  0
LINE
  5
55E
100
AcDbEntity
  8
1
  6
CENTER
 62
     7
100
AcDbLine
 10
4195.000132
 20
356.957941
 30
0.0
 11
4315.000137
 21
356.957941
 31
0.0
  0
ARC
  5
55F
100
AcDbEntity
  8
1
  6
Continuous
 62
     7
100
AcDbCircle
 10
4198.000138
 20
372.957936
 30
0.0
 40
4.500001
100
AcDbArc
 50
144.901026
 51
-147.719137
  0
LINE
  5
560
100
AcDbEntity
  8
1
  6
Continuous
 62
     7
100
AcDbLine
 10
4202.700134
 20
385.957941
 30
0.0
 11
4194.400131
 21
375.457938
 31
0.0
  0
LINE
  5
561
100
AcDbEntity
  8
1
  6
Continuous
 62
     7
100
AcDbLine
 10
4198.200133
 20
372.957936
 30
0.0
 11
4315.000137
 21
372.957936
 31
0.0
  0
LINE
  5
562
100
AcDbEntity
  8
1
  6
Continuous
 62
     7
100
AcDbLine
 10
4194.400131
 20
370.457939
 30
0.0
 11
4202.700134
 21
359.957941
 31
0.0
  0
LINE
  5
563
100
AcDbEntity
  8
1
  6
Continuous
 62
     7
100
AcDbLine
 10
4186.500133
 20
304.957935
 30
0.0
 11
4186.500133
 21
298.157943
 31
0.0
  0
LINE
  5
564
100
AcDbEntity
  8
1
  6
Continuous
 62
     7
100
AcDbLine
 10
4186.500133
 20
302.657939
 30
0.0
 11
4315.000137
 21
302.657939
 31
0.0
  0
LINE
  5
565
100
AcDbEntity
  8
1
  6
Continuous
 62
     7
100
AcDbLine
 10
4186.500133
 20
301.157938
 30
0.0
 11
4315.000137
 21
301.157938
 31
0.0
  0
LINE
  5
566
100
AcDbEntity
  8
1
  6
Continuous
 62
     7
100
AcDbLine
 10
4186.500133
 20
298.157943
 30
0.0
 11
4315.000137
 21
298.157943
 31
0.0
  0
ARC
  5
567
100
AcDbEntity
  8
1
  6
Continuous
 62
     7
100
AcDbCircle
 10
4218.600138
 20
262.757934
 30
0.0
 40
1.000002
100
AcDbArc
 50
-84.292709
 51
-0.010617
  0
LINE
  5
568
100
AcDbEntity
  8
1
  6
Continuous
 62
     7
100
AcDbLine
 10
4219.500137
 20
266.057939
 30
0.0
 11
4219.600134
 21
262.757934
 31
0.0
  0
LINE
  5
569
100
AcDbEntity
  8
1
  6
Continuous
 62
     7
100
AcDbLine
 10
4219.000133
 20
261.65794
 30
0.0
 11
4315.000137
 21
261.65794
 31
0.0
  0
LINE
  5
56A
100
AcDbEntity
  8
1
  6
Continuous
 62
     7
100
AcDbLine
 10
4219.000133
 20
257.35794
 30
0.0
 11
4315.000137
 21
257.35794
 31
0.0
  0
LINE
  5
56B
100
AcDbEntity
  8
1
  6
Continuous
 62
     7
100
AcDbLine
 10
4219.500137
 20
266.057939
 30
0.0
 11
4315.000137
 21
266.057939
 31
0.0
  0
ARC
  5
56C
100
AcDbEntity
  8
1
  6
Continuous
 62
     7
100
AcDbCircle
 10
4219.000133
 20
259.557939
 30
0.0
 40
2.199999
100
AcDbArc
 50
97.7466
 51
-90.022287
  0
LINE
  5
56D
100
AcDbEntity
  8
1
  6
Continuous
 62
     7
100
AcDbLine
 10
4219.000133
 20
259.557939
 30
0.0
 11
4315.000137
 21
259.557939
 31
0.0
  0
LINE
  5
56E
100
AcDbEntity
  8
1
  6
Continuous
 62
     7
100
AcDbLine
 10
4220.32658
 20
266.057939
 30
0.0
 11
4219.000133
 21
298.157943
 31
0.0
  0
LINE
  5
56F
100
AcDbEntity
  8
1
  6
Continuous
 62
     7
100
AcDbLine
 10
4315.000137
 20
324.957939
 30
0.0
 11
4475.000145
 21
324.957939
 31
0.0
  0
LINE
  5
570
100
AcDbEntity
  8
1
  6
Continuous
 62
     7
100
AcDbLine
 10
4475.000145
 20
324.957939
 30
0.0
 11
4475.000145
 21
304.957935
 31
0.0
  0
LINE
  5
571
100
AcDbEntity
  8
1
  6
Continuous
 62
     7
100
AcDbLine
 10
4475.000145
 20
304.957935
 30
0.0
 11
4315.000137
 21
304.957935
 31
0.0
  0
LINE
  5
572
100
AcDbEntity
  8
1
  6
CENTER
 62
     7
100
AcDbLine
 10
4455.000146
 20
292.157936
 30
0.0
 11
4455.000146
 21
340.95794
 31
0.0
  0
LINE
  5
573
100
AcDbEntity
  8
1
  6
CENTER
 62
     7
100
AcDbLine
 10
4455.000146
 20
292.157936
 30
0.0
 11
4455.000146
 21
340.95794
 31
0.0
  0
LINE
  5
574
100
AcDbEntity
  8
1
  6
Continuous
 62
     7
100
AcDbLine
 10
4424.400142
 20
324.25794
 30
0.0
 11
4435.600144
 21
338.457937
 31
0.0
  0
ARC
  5
575
100
AcDbEntity
  8
1
  6
Continuous
 62
     7
100
AcDbCircle
 10
4432.000136
 20
340.95794
 30
0.0
 40
4.500001
100
AcDbArc
 50
-32.280863
 51
35.098974
  0
LINE
  5
576
100
AcDbEntity
  8
1
  6
Continuous
 62
     7
100
AcDbLine
 10
4428.800141
 20
353.95794
 30
0.0
 11
4315.000137
 21
353.95794
 31
0.0
  0
LINE
  5
577
100
AcDbEntity
  8
1
  6
Continuous
 62
     7
100
AcDbLine
 10
4428.800141
 20
359.957941
 30
0.0
 11
4315.000137
 21
359.957941
 31
0.0
  0
ARC
  5
578
100
AcDbEntity
  8
1
  6
Continuous
 62
     7
100
AcDbCircle
 10
4428.800141
 20
356.957941
 30
0.0
 40
3.000001
100
AcDbArc
 50
-89.977713
 51
89.98833
  0
LINE
  5
579
100
AcDbEntity
  8
1
  6
Continuous
 62
     7
100
AcDbLine
 10
4427.30014
 20
353.95794
 30
0.0
 11
4435.600144
 21
343.457937
 31
0.0
  0
LINE
  5
57A
100
AcDbEntity
  8
1
  6
Continuous
 62
     7
100
AcDbLine
 10
4435.600144
 20
370.457939
 30
0.0
 11
4427.30014
 21
359.957941
 31
0.0
  0
LINE
  5
57B
100
AcDbEntity
  8
1
  6
Continuous
 62
     7
100
AcDbLine
 10
4431.800141
 20
340.95794
 30
0.0
 11
4315.000137
 21
340.95794
 31
0.0
  0
LINE
  5
57C
100
AcDbEntity
  8
1
  6
CENTER
 62
     7
100
AcDbLine
 10
4435.000143
 20
356.957941
 30
0.0
 11
4315.000137
 21
356.957941
 31
0.0
  0
ARC
  5
57D
100
AcDbEntity
  8
1
  6
Continuous
 62
     7
100
AcDbCircle
 10
4432.000136
 20
372.957936
 30
0.0
 40
4.500001
100
AcDbArc
 50
-32.280863
 51
35.098974
  0
LINE
  5
57E
100
AcDbEntity
  8
1
  6
Continuous
 62
     7
100
AcDbLine
 10
4427.30014
 20
385.957941
 30
0.0
 11
4435.600144
 21
375.457938
 31
0.0
  0
LINE
  5
57F
100
AcDbEntity
  8
1
  6
Continuous
 62
     7
100
AcDbLine
 10
4431.800141
 20
372.957936
 30
0.0
 11
4315.000137
 21
372.957936
 31
0.0
  0
LINE
  5
580
100
AcDbEntity
  8
1
  6
Continuous
 62
     7
100
AcDbLine
 10
4435.600144
 20
370.457939
 30
0.0
 11
4427.30014
 21
359.957941
 31
0.0
  0
LINE
  5
581
100
AcDbEntity
  8
1
  6
Continuous
 62
     7
100
AcDbLine
 10
4443.500141
 20
304.957935
 30
0.0
 11
4443.500141
 21
298.157943
 31
0.0
  0
LINE
  5
582
100
AcDbEntity
  8
1
  6
Continuous
 62
     7
100
AcDbLine
 10
4443.500141
 20
302.657939
 30
0.0
 11
4315.000137
 21
302.657939
 31
0.0
  0
LINE
  5
583
100
AcDbEntity
  8
1
  6
Continuous
 62
     7
100
AcDbLine
 10
4443.500141
 20
301.157938
 30
0.0
 11
4315.000137
 21
301.157938
 31
0.0
  0
LINE
  5
584
100
AcDbEntity
  8
1
  6
Continuous
 62
     7
100
AcDbLine
 10
4443.500141
 20
298.157943
 30
0.0
 11
4315.000137
 21
298.157943
 31
0.0
  0
ARC
  5
585
100
AcDbEntity
  8
1
  6
Continuous
 62
     7
100
AcDbCircle
 10
4411.400137
 20
262.757934
 30
0.0
 40
1.000002
100
AcDbArc
 50
-179.989383
 51
-95.707291
  0
LINE
  5
586
100
AcDbEntity
  8
1
  6
Continuous
 62
     7
100
AcDbLine
 10
4410.500138
 20
266.057939
 30
0.0
 11
4410.40014
 21
262.757934
 31
0.0
  0
LINE
  5
587
100
AcDbEntity
  8
1
  6
Continuous
 62
     7
100
AcDbLine
 10
4411.000142
 20
261.65794
 30
0.0
 11
4315.000137
 21
261.65794
 31
0.0
  0
LINE
  5
588
100
AcDbEntity
  8
1
  6
Continuous
 62
     7
100
AcDbLine
 10
4411.000142
 20
257.35794
 30
0.0
 11
4315.000137
 21
257.35794
 31
0.0
  0
LINE
  5
589
100
AcDbEntity
  8
1
  6
Continuous
 62
     7
100
AcDbLine
 10
4410.500138
 20
266.057939
 30
0.0
 11
4315.000137
 21
266.057939
 31
0.0
  0
ARC
  5
58A
100
AcDbEntity
  8
1
  6
Continuous
 62
     7
100
AcDbCircle
 10
4411.000142
 20
259.557939
 30
0.0
 40
2.199999
100
AcDbArc
 50
-89.977713
 51
82.2534
  0
LINE
  5
58B
100
AcDbEntity
  8
1
  6
Continuous
 62
     7
100
AcDbLine
 10
4411.000142
 20
259.557939
 30
0.0
 11
4315.000137
 21
259.557939
 31
0.0
  0
LINE
  5
58C
100
AcDbEntity
  8
1
  6
Continuous
 62
     7
100
AcDbLine
 10
4409.673695
 20
266.057939
 30
0.0
 11
4411.000142
 21
298.157943
 31
0.0
  0
LINE
  5
58D
100
AcDbEntity
  8
1
  6
CENTER
 62
     7
100
AcDbLine
 10
4193.500137
 20
373.057939
 30
0.0
 11
4193.500137
 21
614.957937
 31
0.0
  0
LINE
  5
58E
100
AcDbEntity
  8
1
  6
CENTER
 62
     7
100
AcDbLine
 10
4436.500138
 20
373.057939
 30
0.0
 11
4436.500138
 21
614.957937
 31
0.0
  0
LINE
  5
58F
100
AcDbEntity
  8
1
  6
CENTER
 62
     7
100
AcDbLine
 10
4315.000137
 20
705.177939
 30
0.0
 11
4315.000137
 21
241.163004
 31
0.0
  0
CIRCLE
  5
590
100
AcDbEntity
  8
1
  6
Continuous
 62
     7
100
AcDbCircle
 10
4315.000137
 20
1041.396805
 30
0.0
 40
160.0
  0
CIRCLE
  5
591
100
AcDbEntity
  8
1
  6
Continuous
 62
     7
100
AcDbCircle
 10
4315.000137
 20
1041.396805
 30
0.0
 40
128.5
  0
CIRCLE
  5
592
100
AcDbEntity
  8
1
  6
Continuous
 62
     7
100
AcDbCircle
 10
4315.000137
 20
1041.396805
 30
0.0
 40
107.5
  0
CIRCLE
  5
593
100
AcDbEntity
  8
1
  6
HIDDEN
 62
     7
100
AcDbCircle
 10
4315.000137
 20
1041.396805
 30
0.0
 40
110.5
  0
LINE
  5
594
100
AcDbEntity
  8
1
  6
CENTER
 62
     7
100
AcDbLine
 10
4315.000137
 20
1213.983434
 30
0.0
 11
4315.000137
 21
862.157943
 31
0.0
  0
LINE
  5
595
100
AcDbEntity
  8
1
  6
CENTER
 62
     7
100
AcDbLine
 10
4133.502017
 20
1041.396805
 30
0.0
 11
4498.848551
 21
1041.396805
 31
0.0
  0
CIRCLE
  5
596
100
AcDbEntity
  8
1
  6
PHANTOM
 62
     7
100
AcDbCircle
 10
4315.000137
 20
1041.396805
 30
0.0
 40
140.0
  0
CIRCLE
  5
597
100
AcDbEntity
  8
1
  6
Continuous
 62
     7
100
AcDbCircle
 10
4315.000137
 20
1181.396805
 30
0.0
 40
11.5
  0
CIRCLE
  5
598
100
AcDbEntity
  8
1
  6
Continuous
 62
     7
100
AcDbCircle
 10
4216.005188
 20
1140.391754
 30
0.0
 40
11.5
  0
CIRCLE
  5
599
100
AcDbEntity
  8
1
  6
Continuous
 62
     7
100
AcDbCircle
 10
4175.000137
 20
1041.396805
 30
0.0
 40
11.5
  0
CIRCLE
  5
59A
100
AcDbEntity
  8
1
  6
Continuous
 62
     7
100
AcDbCircle
 10
4216.005188
 20
942.401855
 30
0.0
 40
11.5
  0
CIRCLE
  5
59B
100
AcDbEntity
  8
1
  6
Continuous
 62
     7
100
AcDbCircle
 10
4315.000137
 20
901.396805
 30
0.0
 40
11.5
  0
CIRCLE
  5
59C
100
AcDbEntity
  8
1
  6
Continuous
 62
     7
100
AcDbCircle
 10
4413.995087
 20
942.401855
 30
0.0
 40
11.5
  0
CIRCLE
  5
59D
100
AcDbEntity
  8
1
  6
Continuous
 62
     7
100
AcDbCircle
 10
4455.000137
 20
1041.396805
 30
0.0
 40
11.5
  0
CIRCLE
  5
59E
100
AcDbEntity
  8
1
  6
Continuous
 62
     7
100
AcDbCircle
 10
4413.995087
 20
1140.391754
 30
0.0
 40
11.5
  0
LINE
  5
59F
100
AcDbEntity
  8
1
  6
CENTER
 62
     7
100
AcDbLine
 10
4425.729086
 20
1152.125753
 30
0.0
 11
4401.549012
 21
1127.945679
 31
0.0
  0
LINE
  5
5A0
100
AcDbEntity
  8
1
  6
CENTER
 62
     7
100
AcDbLine
 10
4401.549012
 20
954.84793
 30
0.0
 11
4425.729086
 21
930.667856
 31
0.0
  0
LINE
  5
5A1
100
AcDbEntity
  8
1
  6
CENTER
 62
     7
100
AcDbLine
 10
4204.271189
 20
930.667856
 30
0.0
 11
4228.451263
 21
954.84793
 31
0.0
  0
LINE
  5
5A2
100
AcDbEntity
  8
1
  6
CENTER
 62
     7
100
AcDbLine
 10
4204.271189
 20
1152.125753
 30
0.0
 11
4228.451263
 21
1127.945679
 31
0.0
  0
TEXT
  5
5A3
100
AcDbEntity
  8
1
  6
Continuous
 62
     7
100
AcDbText
 10
227.822809
 20
152.359932
 30
0.0
 40
30.0
  1
200A　G1
 41
0.555556
 11
227.822809
 21
152.359932
 31
0.0
100
AcDbText
 73
     1
  0
TEXT
  5
5A4
100
AcDbEntity
  8
1
  6
Continuous
 62
     7
100
AcDbText
 10
225.666216
 20
115.052239
 30
0.0
 40
20.0
  1
 取付長 170
 41
0.705128
 11
225.666216
 21
115.052239
 31
0.0
100
AcDbText
 73
     1
  0
TEXT
  5
5A5
100
AcDbEntity
  8
1
  6
Continuous
 62
     7
100
AcDbText
 10
217.225121
 20
86.641492
 30
0.0
 40
20.0
  1
伸縮量　+20,-50
 41
0.657895
 11
217.225121
 21
86.641492
 31
0.0
100
AcDbText
 73
     1
  0
TEXT
  5
5A6
100
AcDbEntity
  8
1
  6
Continuous
 62
     7
100
AcDbText
 10
675.322823
 20
152.359932
 30
0.0
 40
30.0
  1
200A　G2
 41
0.555556
 11
675.322823
 21
152.359932
 31
0.0
100
AcDbText
 73
     1
  0
TEXT
  5
5A7
100
AcDbEntity
  8
1
  6
Continuous
 62
     7
100
AcDbText
 10
673.16623
 20
115.052239
 30
0.0
 40
20.0
  1
 取付長 200
 41
0.705128
 11
673.16623
 21
115.052239
 31
0.0
100
AcDbText
 73
     1
  0
TEXT
  5
5A8
100
AcDbEntity
  8
1
  6
Continuous
 62
     7
100
AcDbText
 10
664.725136
 20
86.641492
 30
0.0
 40
20.0
  1
伸縮量　+20,-65
 41
0.657895
 11
664.725136
 21
86.641492
 31
0.0
100
AcDbText
 73
     1
  0
TEXT
  5
5A9
100
AcDbEntity
  8
1
  6
Continuous
 62
     7
100
AcDbText
 10
1120.666244
 20
115.052239
 30
0.0
 40
20.0
  1
 取付長 240
 41
0.705128
 11
1120.666244
 21
115.052239
 31
0.0
100
AcDbText
 73
     1
  0
TEXT
  5
5AA
100
AcDbEntity
  8
1
  6
Continuous
 62
     7
100
AcDbText
 10
1568.166259
 20
115.052239
 30
0.0
 40
20.0
  1
 取付長 270
 41
0.705128
 11
1568.166259
 21
115.052239
 31
0.0
100
AcDbText
 73
     1
  0
TEXT
  5
5AB
100
AcDbEntity
  8
1
  6
Continuous
 62
     7
100
AcDbText
 10
2015.666273
 20
115.052239
 30
0.0
 40
20.0
  1
 取付長 300
 41
0.705128
 11
2015.666273
 21
115.052239
 31
0.0
100
AcDbText
 73
     1
  0
TEXT
  5
5AC
100
AcDbEntity
  8
1
  6
Continuous
 62
     7
100
AcDbText
 10
2463.166288
 20
115.052239
 30
0.0
 40
20.0
  1
 取付長 320
 41
0.705128
 11
2463.166288
 21
115.052239
 31
0.0
100
AcDbText
 73
     1
  0
TEXT
  5
5AD
100
AcDbEntity
  8
1
  6
Continuous
 62
     7
100
AcDbText
 10
2910.666302
 20
115.052239
 30
0.0
 40
20.0
  1
 取付長 340
 41
0.705128
 11
2910.666302
 21
115.052239
 31
0.0
100
AcDbText
 73
     1
  0
TEXT
  5
5AE
100
AcDbEntity
  8
1
  6
Continuous
 62
     7
100
AcDbText
 10
3358.166317
 20
115.052239
 30
0.0
 40
20.0
  1
 取付長 360
 41
0.705128
 11
3358.166317
 21
115.052239
 31
0.0
100
AcDbText
 73
     1
  0
TEXT
  5
5AF
100
AcDbEntity
  8
1
  6
Continuous
 62
     7
100
AcDbText
 10
3805.666331
 20
115.052239
 30
0.0
 40
20.0
  1
 取付長 375
 41
0.705128
 11
3805.666331
 21
115.052239
 31
0.0
100
AcDbText
 73
     1
  0
TEXT
  5
5B0
100
AcDbEntity
  8
1
  6
Continuous
 62
     7
100
AcDbText
 10
4253.166346
 20
115.052239
 30
0.0
 40
20.0
  1
 取付長 390
 41
0.705128
 11
4253.166346
 21
115.052239
 31
0.0
100
AcDbText
 73
     1
  0
TEXT
  5
5B1
100
AcDbEntity
  8
1
  6
Continuous
 62
     7
100
AcDbText
 10
1122.822838
 20
152.359932
 30
0.0
 40
30.0
  1
200A　G3
 41
0.555556
 11
1122.822838
 21
152.359932
 31
0.0
100
AcDbText
 73
     1
  0
TEXT
  5
5B2
100
AcDbEntity
  8
1
  6
Continuous
 62
     7
100
AcDbText
 10
1570.322852
 20
152.359932
 30
0.0
 40
30.0
  1
200A　G4
 41
0.555556
 11
1570.322852
 21
152.359932
 31
0.0
100
AcDbText
 73
     1
  0
TEXT
  5
5B3
100
AcDbEntity
  8
1
  6
Continuous
 62
     7
100
AcDbText
 10
2017.822867
 20
152.359932
 30
0.0
 40
30.0
  1
200A　G5
 41
0.555556
 11
2017.822867
 21
152.359932
 31
0.0
100
AcDbText
 73
     1
  0
TEXT
  5
5B4
100
AcDbEntity
  8
1
  6
Continuous
 62
     7
100
AcDbText
 10
2465.322881
 20
152.359932
 30
0.0
 40
30.0
  1
200A　G6
 41
0.555556
 11
2465.322881
 21
152.359932
 31
0.0
100
AcDbText
 73
     1
  0
TEXT
  5
5B5
100
AcDbEntity
  8
1
  6
Continuous
 62
     7
100
AcDbText
 10
2912.822896
 20
152.359932
 30
0.0
 40
30.0
  1
200A　G7
 41
0.555556
 11
2912.822896
 21
152.359932
 31
0.0
100
AcDbText
 73
     1
  0
TEXT
  5
5B6
100
AcDbEntity
  8
1
  6
Continuous
 62
     7
100
AcDbText
 10
3360.32291
 20
152.359932
 30
0.0
 40
30.0
  1
200A　G8
 41
0.555556
 11
3360.32291
 21
152.359932
 31
0.0
100
AcDbText
 73
     1
  0
TEXT
  5
5B7
100
AcDbEntity
  8
1
  6
Continuous
 62
     7
100
AcDbText
 10
3807.822925
 20
152.359932
 30
0.0
 40
30.0
  1
200A　G9
 41
0.555556
 11
3807.822925
 21
152.359932
 31
0.0
100
AcDbText
 73
     1
  0
TEXT
  5
5B8
100
AcDbEntity
  8
1
  6
Continuous
 62
     7
100
AcDbText
 10
4247.822939
 20
152.359932
 30
0.0
 40
30.0
  1
200A　G10
 41
0.54878
 11
4247.822939
 21
152.359932
 31
0.0
100
AcDbText
 73
     1
  0
TEXT
  5
5B9
100
AcDbEntity
  8
1
  6
Continuous
 62
     7
100
AcDbText
 10
1112.22515
 20
86.641492
 30
0.0
 40
20.0
  1
伸縮量　+24,-86
 41
0.657895
 11
1112.22515
 21
86.641492
 31
0.0
100
AcDbText
 73
     1
  0
TEXT
  5
5BA
100
AcDbEntity
  8
1
  6
Continuous
 62
     7
100
AcDbText
 10
1559.725165
 20
86.641492
 30
0.0
 40
20.0
  1
伸縮量　+27,-99
 41
0.657895
 11
1559.725165
 21
86.641492
 31
0.0
100
AcDbText
 73
     1
  0
TEXT
  5
5BB
100
AcDbEntity
  8
1
  6
Continuous
 62
     7
100
AcDbText
 10
2007.225179
 20
86.641492
 30
0.0
 40
20.0
  1
伸縮量　+30,-112
 41
0.645161
 11
2007.225179
 21
86.641492
 31
0.0
100
AcDbText
 73
     1
  0
TEXT
  5
5BC
100
AcDbEntity
  8
1
  6
Continuous
 62
     7
100
AcDbText
 10
2454.725193
 20
86.641492
 30
0.0
 40
20.0
  1
伸縮量　+32,-115
 41
0.645161
 11
2454.725193
 21
86.641492
 31
0.0
100
AcDbText
 73
     1
  0
TEXT
  5
5BD
100
AcDbEntity
  8
1
  6
Continuous
 62
     7
100
AcDbText
 10
2902.225208
 20
86.641492
 30
0.0
 40
20.0
  1
伸縮量　+25,-135
 41
0.645161
 11
2902.225208
 21
86.641492
 31
0.0
100
AcDbText
 73
     1
  0
TEXT
  5
5BE
100
AcDbEntity
  8
1
  6
Continuous
 62
     7
100
AcDbText
 10
3349.725222
 20
86.641492
 30
0.0
 40
20.0
  1
伸縮量　+36,-138
 41
0.645161
 11
3349.725222
 21
86.641492
 31
0.0
100
AcDbText
 73
     1
  0
TEXT
  5
5BF
100
AcDbEntity
  8
1
  6
Continuous
 62
     7
100
AcDbText
 10
3797.225237
 20
86.641492
 30
0.0
 40
20.0
  1
伸縮量　+25,-153
 41
0.645161
 11
3797.225237
 21
86.641492
 31
0.0
100
AcDbText
 73
     1
  0
TEXT
  5
5C0
100
AcDbEntity
  8
1
  6
Continuous
 62
     7
100
AcDbText
 10
4244.725251
 20
86.641492
 30
0.0
 40
20.0
  1
伸縮量　+30,-151
 41
0.645161
 11
4244.725251
 21
86.641492
 31
0.0
100
AcDbText
 73
     1
  0
ENDSEC
  0
SECTION
  2
OBJECTS
  0
DICTIONARY
  5
19
100
AcDbDictionary
280
     0
281
     1
  3
ACAD_GROUP
350
1A
  3
ACAD_MLINESTYLE
350
1B
  3
ACAD_LAYOUT
350
1E
  3
ACAD_PLOTSETTINGS
350
22
  3
ACAD_PLOTSTYLENAME
350
1F
  3
ACAD_WIPEOUT_VARS
350
23
  0
DICTIONARY
  5
1A
102
{ACAD_REACTORS
330
19
102
}
100
AcDbDictionary
280
     0
281
     1
  0
DICTIONARY
  5
1B
102
{ACAD_REACTORS
330
19
102
}
100
AcDbDictionary
280
     0
281
     1
  3
Standard
350
1C
  0
MLINESTYLE
  5
1C
102
{ACAD_REACTORS
330
1B
102
}
100
AcDbMlineStyle
  2
Standard
 70
     0
  3

 62
     0
 51
90.0
 52
90.0
 71
     2
 49
0.5
 62
   256
  6
BYLAYER
 49
-0.5
 62
   256
  6
BYLAYER
  0
ACDBDICTIONARYWDFLT
  5
1F
102
{ACAD_REACTORS
330
19
102
}
100
AcDbDictionary
281
     1
  3
Normal
350
1D
100
AcDbDictionaryWithDefault
340
1D
  0
ACDBPLACEHOLDER
  5
1D
102
{ACAD_REACTORS
330
1F
102
}
  0
LAYOUT
  5
20
102
{ACAD_REACTORS
330
1E
102
}
100
AcDbPlotSettings
  1

  2

  4

  6

 40
0.0
 41
0.0
 42
0.0
 43
0.0
 44
0.0
 45
0.0
 46
0.0
 47
0.0
 48
0.0
 49
0.0
140
0.0
141
0.0
142
1.0
143
1.0
 70
  1024
 72
     0
 73
     0
 74
     0
  7

 75
     0
147
1.0
148
0.0
149
0.0
100
AcDbLayout
  1
Model
 70
     0
 71
     0
 10
0.0
 20
0.0
 11
0.0
 21
0.0
 12
0.0
 22
0.0
 32
0.0
 14
0.0
 24
0.0
 34
0.0
 15
0.0
 25
0.0
 35
0.0
146
0.0
 13
0.0
 23
0.0
 33
0.0
 16
0.0
 26
0.0
 36
0.0
 17
0.0
 27
0.0
 37
0.0
 76
     0
330
A
331
0
345
0
346
0
  0
LAYOUT
  5
21
102
{ACAD_REACTORS
330
1E
102
}
100
AcDbPlotSettings
  1

  2

  4

  6

 40
0.0
 41
0.0
 42
0.0
 43
0.0
 44
0.0
 45
0.0
 46
0.0
 47
0.0
 48
0.0
 49
0.0
140
0.0
141
0.0
142
1.0
143
1.0
 70
     0
 72
     0
 73
     0
 74
     0
  7

 75
     0
147
1.0
148
0.0
149
0.0
100
AcDbLayout
  1
Layout1
 70
     0
 71
     0
 10
0.0
 20
0.0
 11
0.0
 21
0.0
 12
0.0
 22
0.0
 32
0.0
 14
0.0
 24
0.0
 34
0.0
 15
0.0
 25
0.0
 35
0.0
146
0.0
 13
0.0
 23
0.0
 33
0.0
 16
0.0
 26
0.0
 36
0.0
 17
0.0
 27
0.0
 37
0.0
 76
     0
330
B
331
0
345
0
346
0
  0
DICTIONARY
  5
1E
102
{ACAD_REACTORS
330
19
102
}
100
AcDbDictionary
280
     0
281
     1
  3
Layout1
350
21
  3
Model
350
20
  0
DICTIONARY
  5
22
102
{ACAD_REACTORS
330
19
102
}
100
AcDbDictionary
280
     0
281
     1
  0
WIPEOUTVARIABLES
  5
23
100
AcDbWipeoutVariables
 70
     1
  0
ENDSEC
  0
EOF
