  0
SECTION
  2
HEADER
  9
$ACADVER
  1
AC1015
  9
$ACADMAINTVER
 70
     6
  9
$DWGCODEPAGE
  3
DOS932
  9
$INSBASE
 10
0.0
 20
0.0
 30
0.0
  9
$EXTMIN
 10
0.0
 20
0.0
 30
0.0
  9
$EXTMAX
 10
4600.0
 20
1300.0
 30
0.0
  9
$LIMMIN
 10
0.0
 20
0.0
  9
$LIMMAX
 10
4600.0
 20
1300.0
  9
$ORTHOMODE
 70
     0
  9
$REGENMODE
 70
     1
  9
$FILLMODE
 70
     1
  9
$QTEXTMODE
 70
     0
  9
$MIRRTEXT
 70
     1
  9
$LTSCALE
 40
0.25
  9
$ATTMODE
 70
     1
  9
$TEXTSIZE
 40
3.0
  9
$TRACEWID
 40
0.05
  9
$TEXTSTYLE
  7
Standard
  9
$CLAYER
  8
0
  9
$CELTYPE
  6
Continuous
  9
$CECOLOR
 62
   256
  9
$CELTSCALE
 40
1.0
  9
$DISPSILH
 70
     0
  9
$DIMSCALE
 40
1.0
  9
$DIMASZ
 40
2.5
  9
$DIMEXO
 40
2.0
  9
$DIMDLI
 40
10.0
  9
$DIMRND
 40
0.0
  9
$DIMDLE
 40
0.0
  9
$DIMEXE
 40
2.0
  9
$DIMTP
 40
0.0
  9
$DIMTM
 40
0.0
  9
$DIMTXT
 40
3.0
  9
$DIMCEN
 40
0.09
  9
$DIMTSZ
 40
0.0
  9
$DIMTOL
 70
     0
  9
$DIMLIM
 70
     0
  9
$DIMTIH
 70
     0
  9
$DIMTOH
 70
     0
  9
$DIMSE1
 70
     0
  9
$DIMSE2
 70
     0
  9
$DIMTAD
 70
     3
  9
$DIMZIN
 70
     0
  9
$DIMBLK
  1

  9
$DIMASO
 70
     1
  9
$DIMSHO
 70
     1
  9
$DIMPOST
  1

  9
$DIMAPOST
  1

  9
$DIMALT
 70
     0
  9
$DIMALTD
 70
     2
  9
$DIMALTF
 40
25.4
  9
$DIMLFAC
 40
1.0
  9
$DIMTOFL
 70
     1
  9
$DIMTVP
 40
0.7
  9
$DIMTIX
 70
     0
  9
$DIMSOXD
 70
     0
  9
$DIMSAH
 70
     0
  9
$DIMBLK1
  1

  9
$DIMBLK2
  1

  9
$DIMSTYLE
  2
Standard
  9
$DIMCLRD
 70
     0
  9
$DIMCLRE
 70
     0
  9
$DIMCLRT
 70
     0
  9
$DIMTFAC
 40
0.5
  9
$DIMGAP
 40
0.0
  9
$DIMJUST
 70
     0
  9
$DIMSD1
 70
     0
  9
$DIMSD2
 70
     0
  9
$DIMTOLJ
 70
     1
  9
$DIMTZIN
 70
     0
  9
$DIMALTZ
 70
     0
  9
$DIMALTTZ
 70
     0
  9
$DIMUPT
 70
     0
  9
$DIMDEC
 70
     2
  9
$DIMTDEC
 70
     4
  9
$DIMALTU
 70
     2
  9
$DIMALTTD
 70
     2
  9
$DIMTXSTY
  7
Standard
  9
$DIMAUNIT
 70
     0
  9
$DIMADEC
 70
     0
  9
$DIMALTRND
 40
0.0
  9
$DIMAZIN
 70
     0
  9
$DIMDSEP
 70
     0
  9
$DIMATFIT
 70
     3
  9
$DIMFRAC
 70
     0
  9
$DIMLDRBLK
  1

  9
$DIMLUNIT
 70
     2
  9
$DIMLWD
 70
     0
  9
$DIMLWE
 70
     0
  9
$DIMTMOVE
 70
     0
  9
$LUNITS
 70
     2
  9
$LUPREC
 70
     4
  9
$SKETCHINC
 40
0.1
  9
$FILLETRAD
 40
0.0
  9
$AUNITS
 70
     0
  9
$AUPREC
 70
     0
  9
$MENU
  1
acad
  9
$ELEVATION
 40
0.0
  9
$PELEVATION
 40
0.0
  9
$THICKNESS
 40
0.0
  9
$LIMCHECK
 70
     0
  9
$CHAMFERA
 40
0.0
  9
$CHAMFERB
 40
0.0
  9
$CHAMFERC
 40
0.0
  9
$CHAMFERD
 40
0.0
  9
$SKPOLY
 70
     0
  9
$TDCREATE
 40
2459124.476967593
  9
$TDUCREATE
 40
0.000000000
  9
$TDUPDATE
 40
2459124.476967593
  9
$TDUUPDATE
 40
0.000000000
  9
$TDINDWG
 40
0.0000000000
  9
$TDUSRTIMER
 40
0.0000000000
  9
$USRTIMER
 70
     1
  9
$ANGBASE
 50
0.0
  9
$ANGDIR
 70
     0
  9
$PDMODE
 70
     0
  9
$PDSIZE
 40
0.0
  9
$PLINEWID
 40
0.0
  9
$SPLFRAME
 70
     0
  9
$SPLINETYPE
 70
     6
  9
$SPLINESEGS
 70
     8
  9
$HANDSEED
  5
611
  9
$SURFTAB1
 70
     6
  9
$SURFTAB2
 70
     6
  9
$SURFTYPE
 70
     6
  9
$SURFU
 70
     6
  9
$SURFV
 70
     6
  9
$UCSBASE
  2

  9
$UCSNAME
  2

  9
$UCSORG
 10
0.0
 20
0.0
 30
0.0
  9
$UCSXDIR
 10
1.0
 20
0.0
 30
0.0
  9
$UCSYDIR
 10
0.0
 20
1.0
 30
0.0
  9
$UCSORTHOREF
  2

  9
$UCSORTHOVIEW
 70
     0
  9
$UCSORGTOP
 10
0.0
 20
0.0
 30
0.0
  9
$UCSORGBOTTOM
 10
0.0
 20
0.0
 30
0.0
  9
$UCSORGLEFT
 10
0.0
 20
0.0
 30
0.0
  9
$UCSORGRIGHT
 10
0.0
 20
0.0
 30
0.0
  9
$UCSORGFRONT
 10
0.0
 20
0.0
 30
0.0
  9
$UCSORGBACK
 10
0.0
 20
0.0
 30
0.0
  9
$PUCSBASE
  2

  9
$PUCSNAME
  2

  9
$PUCSORG
 10
0.0
 20
0.0
 30
0.0
  9
$PUCSXDIR
 10
1.0
 20
0.0
 30
0.0
  9
$PUCSYDIR
 10
0.0
 20
1.0
 30
0.0
  9
$PUCSORTHOREF
  2

  9
$PUCSORTHOVIEW
 70
     0
  9
$PUCSORGTOP
 10
0.0
 20
0.0
 30
0.0
  9
$PUCSORGBOTTOM
 10
0.0
 20
0.0
 30
0.0
  9
$PUCSORGLEFT
 10
0.0
 20
0.0
 30
0.0
  9
$PUCSORGRIGHT
 10
0.0
 20
0.0
 30
0.0
  9
$PUCSORGFRONT
 10
0.0
 20
0.0
 30
0.0
  9
$PUCSORGBACK
 10
0.0
 20
0.0
 30
0.0
  9
$USERI1
 70
     0
  9
$USERI2
 70
     0
  9
$USERI3
 70
     0
  9
$USERI4
 70
     0
  9
$USERI5
 70
     0
  9
$USERR1
 40
0.0
  9
$USERR2
 40
0.0
  9
$USERR3
 40
0.0
  9
$USERR4
 40
0.0
  9
$USERR5
 40
0.0
  9
$WORLDVIEW
 70
     1
  9
$SHADEDGE
 70
     3
  9
$SHADEDIF
 70
    70
  9
$TILEMODE
 70
     1
  9
$MAXACTVP
 70
    16
  9
$PINSBASE
 10
0.0
 20
0.0
 30
0.0
  9
$PLIMCHECK
 70
     0
  9
$PEXTMIN
 10
0.0
 20
0.0
 30
0.0
  9
$PEXTMAX
 10
4600.0
 20
1300.0
 30
0.0
  9
$PLIMMIN
 10
0.0
 20
0.0
  9
$PLIMMAX
 10
4600.0
 20
1300.0
  9
$UNITMODE
 70
     0
  9
$VISRETAIN
 70
     0
  9
$PLINEGEN
 70
     1
  9
$PSLTSCALE
 70
     0
  9
$TREEDEPTH
 70
  3020
  9
$CMLSTYLE
  2
Standard
  9
$CMLJUST
 70
     0
  9
$CMLSCALE
 40
1.0
  9
$PROXYGRAPHICS
 70
     0
  9
$MEASUREMENT
 70
     0
  9
$CELWEIGHT
370
     0
  9
$ENDCAPS
280
     0
  9
$JOINSTYLE
280
     0
  9
$LWDISPLAY
290
     0
  9
$INSUNITS
 70
     0
  9
$HYPERLINKBASE
  1

  9
$XEDIT
290
     1
  9
$CEPSNTYPE
380
     0
  9
$PSTYLEMODE
290
     1
  9
$FINGERPRINTGUID
  2

  9
$VERSIONGUID
  2

  9
$EXTNAMES
290
     1
  9
$PSVPSCALE
 40
0.0
  0
ENDSEC
  0
SECTION
  2
CLASSES
  0
CLASS
  1
LWPOLYLINE
  2
AcDbPolyline
  3
AutoCAD 2000
 90
    32768
280
     0
281
     1
  0
CLASS
  1
IMAGE
  2
AcDbRasterImage
  3
ISM
 90
    32895
280
     0
281
     1
  0
CLASS
  1
OLE2FRAME
  2
AcDbOle2Frame
  3
AutoCAD 2000
 90
    32768
280
     0
281
     1
  0
CLASS
  1
HATCH
  2
AcDbHatch
  3
AutoCAD 2000
 90
    32768
280
     0
281
     1
  0
CLASS
  1
DICTIONARYVAR
  2
AcDbDictionaryVar
  3
AutoCAD 2000
 90
    32768
280
     0
281
     0
  0
CLASS
  1
RASTERVARIABLES
  2
AcDbRasterVariables
  3
ISM
 90
    32768
280
     0
281
     0
  0
CLASS
  1
IMAGEDEF
  2
AcDbRasterImageDef
  3
ISM
 90
    32768
280
     0
281
     0
  0
CLASS
  1
IMAGEDEF_REACTOR
  2
AcDbRasterImageDefReactor
  3
ISM
 90
    32769
280
     0
281
     0
  0
CLASS
  1
IDBUFFER
  2
AcDbIdBuffer
  3
AutoCAD 2000
 90
    32768
280
     0
281
     0
  0
CLASS
  1
SPATIAL_FILTER
  2
AcDbSpatialFilter
  3
AutoCAD 2000
 90
    32768
280
     0
281
     0
  0
CLASS
  1
XRECORD
  2
AcDbXrecord
  3
AutoCAD 2000
 90
    32768
280
     0
281
     0
  0
CLASS
  1
SORTENTSTABLE
  2
AcDbSortentsTable
  3
AutoCAD 2000
 90
    32768
280
     0
281
     0
  0
CLASS
  1
LAYER_INDEX
  2
AcDbLayerIndex
  3
AutoCAD 2000
 90
    32768
280
     0
281
     0
  0
CLASS
  1
SPATIAL_INDEX
  2
AcDbSpatialIndex
  3
AutoCAD 2000
 90
    32768
280
     0
281
     0
  0
CLASS
  1
OBJECT_PTR
  2
CAseDLPNTableRecord
  3
"ASE-LPNTableRecord"
 90
    32769
280
     0
281
     0
  0
CLASS
  1
LAYOUT
  2
AcDbLayout
  3
AutoCAD 2000
 90
        0
280
     0
281
     0
  0
CLASS
  1
PLOTSETTINGS
  2
AcDbPlotSettings
  3
AutoCAD 2000
 90
    32768
280
     0
281
     0
  0
CLASS
  1
ACDBDICTIONARYWDFLT
  2
AcDbDictionaryWithDefault
  3
AutoCAD 2000
 90
        0
280
     0
281
     0
  0
CLASS
  1
ACDBPLACEHOLDER
  2
AcDbPlaceHolder
  3
AutoCAD 2000
 90
        0
280
     0
281
     0
  0
CLASS
  1
VBA_PROJECT
  2
AcDbVbaProject
  3
acadvba
 90
    32768
280
     0
281
     0
  0
CLASS
  1
WIPEOUT
  2
AcDbWipeout
  3
WipeOut|AutoCAD Express Tool|expresstools@autodesk.com
 90
    32895
280
     0
281
     1
  0
CLASS
  1
WIPEOUTVARIABLES
  2
AcDbWipeoutVariables
  3
WipeOut|AutoCAD Express Tool|expresstools@autodesk.com
 90
        0
280
     0
281
     0
  0
CLASS
  1
RTEXT
  2
RText
  3
RText|AutoCAD Express Tool|expresstools@autodesk.com
 90
    32768
280
     0
281
     1
  0
CLASS
  1
ARCALIGNEDTEXT
  2
AcDbArcAlignedText
  3
ATEXT|AutoCAD Express Tool|expresstools@autodesk.com
 90
    32768
280
     0
281
     1
  0
ENDSEC
  0
SECTION
  2
TABLES
  0
TABLE
  2
VPORT
  5
7
100
AcDbSymbolTable
 70
     1
  0
VPORT
  5
15
100
AcDbSymbolTableRecord
100
AcDbViewportTableRecord
  2
*ACTIVE
 70
     0
 10
0.0
 20
0.0
 11
1.0
 21
1.0
 12
6.591288
 22
4.579184
 13
0.0
 23
0.0
 14
1.0
 24
1.0
 15
0.0
 25
0.0
 16
0.0
 26
0.0
 36
1.0
 17
0.0
 27
0.0
 37
0.0
 40
9.158369
 41
0.688564
 42
50.0
 43
0.0
 44
0.0
 50
0.0
 51
0.0
 71
     0
 72
   100
 73
     1
 74
     1
 75
     0
 76
     0
 77
     0
 78
     0
281
     0
 65
     0
110
0.0
120
0.0
130
0.0
111
1.0
121
0.0
131
0.0
112
0.0
122
1.0
132
0.0
345
0
346
0
 79
     0
146
0.0
  0
ENDTAB
  0
TABLE
  2
LTYPE
  5
4
100
AcDbSymbolTable
 70
     9
  0
LTYPE
  5
11
100
AcDbSymbolTableRecord
100
AcDbLinetypeTableRecord
  2
ByBlock
 70
    64
  3

 72
    65
 73
     0
 40
0.0
  0
LTYPE
  5
12
100
AcDbSymbolTableRecord
100
AcDbLinetypeTableRecord
  2
ByLayer
 70
    64
  3

 72
    65
 73
     0
 40
0.0
  0
LTYPE
  5
13
100
AcDbSymbolTableRecord
100
AcDbLinetypeTableRecord
  2
Continuous
 70
    64
  3
Solid line
 72
    65
 73
     0
 40
0.0
  0
LTYPE
  5
24
100
AcDbSymbolTableRecord
100
AcDbLinetypeTableRecord
  2
HIDDEN
 70
    64
  3
- - - - - - - - 
 72
    65
 73
     2
 40
12.6
 49
8.4
 74
     0
 49
-4.2
 74
     0
  0
LTYPE
  5
25
100
AcDbSymbolTableRecord
100
AcDbLinetypeTableRecord
  2
DOT
 70
    64
  3
･ ･ ･ ･ ･ ･ ･ ･ 
 72
    65
 73
     2
 40
8.0
 49
6.0
 74
     0
 49
-2.0
 74
     0
  0
LTYPE
  5
26
100
AcDbSymbolTableRecord
100
AcDbLinetypeTableRecord
  2
CENTER
 70
    64
  3
- ･ - ･ - ･ - ･ 
 72
    65
 73
     4
 40
50.5
 49
30.0
 74
     0
 49
-9.0
 74
     0
 49
2.5
 74
     0
 49
-9.0
 74
     0
  0
LTYPE
  5
27
100
AcDbSymbolTableRecord
100
AcDbLinetypeTableRecord
  2
PHANTOM
 70
    64
  3
- ･･ - ･･ - ･･ - ･･ 
 72
    65
 73
     6
 40
58.0
 49
30.0
 74
     0
 49
-9.0
 74
     0
 49
2.5
 74
     0
 49
-5.0
 74
     0
 49
2.5
 74
     0
 49
-9.0
 74
     0
  0
LTYPE
  5
28
100
AcDbSymbolTableRecord
100
AcDbLinetypeTableRecord
  2
ACAD_ISO06W100
 70
    64
  3
____ ... ____ ... ____
 72
    65
 73
     8
 40
37.5
 49
24.0
 74
     0
 49
-3.0
 74
     0
 49
0.5
 74
     0
 49
-3.0
 74
     0
 49
0.5
 74
     0
 49
-3.0
 74
     0
 49
0.5
 74
     0
 49
-3.0
 74
     0
  0
LTYPE
  5
29
100
AcDbSymbolTableRecord
100
AcDbLinetypeTableRecord
  2
ACAD_ISO14W100
 70
    64
  3
__ . . . __ . . . __ . . . 
 72
    65
 73
     8
 40
25.5
 49
12.0
 74
     0
 49
-3.0
 74
     0
 49
0.5
 74
     0
 49
-3.0
 74
     0
 49
0.5
 74
     0
 49
-3.0
 74
     0
 49
0.5
 74
     0
 49
-3.0
 74
     0
  0
ENDTAB
  0
TABLE
  2
LAYER
  5
2
100
AcDbSymbolTable
 70
   130
  0
LAYER
  5
14
100
AcDbSymbolTableRecord
100
AcDbLayerTableRecord
  2
0
 70
     0
 62
     7
  6
Continuous
290
     1
370
    -3
390
1D
  0
LAYER
  5
2A
100
AcDbSymbolTableRecord
100
AcDbLayerTableRecord
  2
1
 70
     0
 62
     7
  6
Continuous
290
     1
370
    -3
390
1F
  0
LAYER
  5
2B
100
AcDbSymbolTableRecord
100
AcDbLayerTableRecord
  2
2
 70
     0
 62
     1
  6
Continuous
290
     1
370
    -3
390
1F
  0
LAYER
  5
2C
100
AcDbSymbolTableRecord
100
AcDbLayerTableRecord
  2
3
 70
     0
 62
     3
  6
Continuous
290
     1
370
    -3
390
1F
  0
LAYER
  5
2D
100
AcDbSymbolTableRecord
100
AcDbLayerTableRecord
  2
4
 70
     0
 62
     6
  6
Continuous
290
     1
370
    -3
390
1F
  0
LAYER
  5
2E
100
AcDbSymbolTableRecord
100
AcDbLayerTableRecord
  2
5
 70
     0
 62
     2
  6
Continuous
290
     1
370
    -3
390
1F
  0
LAYER
  5
2F
100
AcDbSymbolTableRecord
100
AcDbLayerTableRecord
  2
6
 70
     0
 62
     5
  6
Continuous
290
     1
370
    -3
390
1F
  0
LAYER
  5
30
100
AcDbSymbolTableRecord
100
AcDbLayerTableRecord
  2
7
 70
     0
 62
     4
  6
Continuous
290
     1
370
    -3
390
1F
  0
LAYER
  5
31
100
AcDbSymbolTableRecord
100
AcDbLayerTableRecord
  2
8
 70
     0
 62
     3
  6
Continuous
290
     1
370
    -3
390
1F
  0
LAYER
  5
32
100
AcDbSymbolTableRecord
100
AcDbLayerTableRecord
  2
9
 70
     0
 62
     6
  6
Continuous
290
     1
370
    -3
390
1F
  0
LAYER
  5
33
100
AcDbSymbolTableRecord
100
AcDbLayerTableRecord
  2
10
 70
     0
 62
     2
  6
Continuous
290
     1
370
    -3
390
1F
  0
LAYER
  5
34
100
AcDbSymbolTableRecord
100
AcDbLayerTableRecord
  2
11
 70
     0
 62
     7
  6
Continuous
290
     1
370
    -3
390
1F
  0
LAYER
  5
35
100
AcDbSymbolTableRecord
100
AcDbLayerTableRecord
  2
12
 70
     0
 62
     4
  6
Continuous
290
     1
370
    -3
390
1F
  0
LAYER
  5
36
100
AcDbSymbolTableRecord
100
AcDbLayerTableRecord
  2
13
 70
     0
 62
     3
  6
Continuous
290
     1
370
    -3
390
1F
  0
LAYER
  5
37
100
AcDbSymbolTableRecord
100
AcDbLayerTableRecord
  2
14
 70
     0
 62
     6
  6
Continuous
290
     1
370
    -3
390
1F
  0
LAYER
  5
38
100
AcDbSymbolTableRecord
100
AcDbLayerTableRecord
  2
15
 70
     0
 62
     2
  6
Continuous
290
     1
370
    -3
390
1F
  0
LAYER
  5
39
100
AcDbSymbolTableRecord
100
AcDbLayerTableRecord
  2
16
 70
     0
 62
     7
  6
Continuous
290
     1
370
    -3
390
1F
  0
LAYER
  5
3A
100
AcDbSymbolTableRecord
100
AcDbLayerTableRecord
  2
17
 70
     0
 62
     4
  6
Continuous
290
     1
370
    -3
390
1F
  0
LAYER
  5
3B
100
AcDbSymbolTableRecord
100
AcDbLayerTableRecord
  2
18
 70
     0
 62
     3
  6
Continuous
290
     1
370
    -3
390
1F
  0
LAYER
  5
3C
100
AcDbSymbolTableRecord
100
AcDbLayerTableRecord
  2
19
 70
     0
 62
     6
  6
Continuous
290
     1
370
    -3
390
1F
  0
LAYER
  5
3D
100
AcDbSymbolTableRecord
100
AcDbLayerTableRecord
  2
20
 70
     0
 62
     2
  6
Continuous
290
     1
370
    -3
390
1F
  0
LAYER
  5
3E
100
AcDbSymbolTableRecord
100
AcDbLayerTableRecord
  2
21
 70
     0
 62
     7
  6
Continuous
290
     1
370
    -3
390
1F
  0
LAYER
  5
3F
100
AcDbSymbolTableRecord
100
AcDbLayerTableRecord
  2
22
 70
     0
 62
     4
  6
Continuous
290
     1
370
    -3
390
1F
  0
LAYER
  5
40
100
AcDbSymbolTableRecord
100
AcDbLayerTableRecord
  2
23
 70
     0
 62
     3
  6
Continuous
290
     1
370
    -3
390
1F
  0
LAYER
  5
41
100
AcDbSymbolTableRecord
100
AcDbLayerTableRecord
  2
24
 70
     0
 62
     6
  6
Continuous
290
     1
370
    -3
390
1F
  0
LAYER
  5
42
100
AcDbSymbolTableRecord
100
AcDbLayerTableRecord
  2
25
 70
     0
 62
     2
  6
Continuous
290
     1
370
    -3
390
1F
  0
LAYER
  5
43
100
AcDbSymbolTableRecord
100
AcDbLayerTableRecord
  2
26
 70
     0
 62
     7
  6
Continuous
290
     1
370
    -3
390
1F
  0
LAYER
  5
44
100
AcDbSymbolTableRecord
100
AcDbLayerTableRecord
  2
27
 70
     0
 62
     4
  6
Continuous
290
     1
370
    -3
390
1F
  0
LAYER
  5
45
100
AcDbSymbolTableRecord
100
AcDbLayerTableRecord
  2
28
 70
     0
 62
     3
  6
Continuous
290
     1
370
    -3
390
1F
  0
LAYER
  5
46
100
AcDbSymbolTableRecord
100
AcDbLayerTableRecord
  2
29
 70
     0
 62
     6
  6
Continuous
290
     1
370
    -3
390
1F
  0
LAYER
  5
47
100
AcDbSymbolTableRecord
100
AcDbLayerTableRecord
  2
30
 70
     0
 62
     2
  6
Continuous
290
     1
370
    -3
390
1F
  0
LAYER
  5
48
100
AcDbSymbolTableRecord
100
AcDbLayerTableRecord
  2
31
 70
     0
 62
     7
  6
Continuous
290
     1
370
    -3
390
1F
  0
LAYER
  5
49
100
AcDbSymbolTableRecord
100
AcDbLayerTableRecord
  2
32
 70
     0
 62
     4
  6
Continuous
290
     1
370
    -3
390
1F
  0
LAYER
  5
4A
100
AcDbSymbolTableRecord
100
AcDbLayerTableRecord
  2
33
 70
     0
 62
     3
  6
Continuous
290
     1
370
    -3
390
1F
  0
LAYER
  5
4B
100
AcDbSymbolTableRecord
100
AcDbLayerTableRecord
  2
34
 70
     0
 62
     6
  6
Continuous
290
     1
370
    -3
390
1F
  0
LAYER
  5
4C
100
AcDbSymbolTableRecord
100
AcDbLayerTableRecord
  2
35
 70
     0
 62
     2
  6
Continuous
290
     1
370
    -3
390
1F
  0
LAYER
  5
4D
100
AcDbSymbolTableRecord
100
AcDbLayerTableRecord
  2
36
 70
     0
 62
     7
  6
Continuous
290
     1
370
    -3
390
1F
  0
LAYER
  5
4E
100
AcDbSymbolTableRecord
100
AcDbLayerTableRecord
  2
37
 70
     0
 62
     4
  6
Continuous
290
     1
370
    -3
390
1F
  0
LAYER
  5
4F
100
AcDbSymbolTableRecord
100
AcDbLayerTableRecord
  2
38
 70
     0
 62
     3
  6
Continuous
290
     1
370
    -3
390
1F
  0
LAYER
  5
50
100
AcDbSymbolTableRecord
100
AcDbLayerTableRecord
  2
39
 70
     0
 62
     6
  6
Continuous
290
     1
370
    -3
390
1F
  0
LAYER
  5
51
100
AcDbSymbolTableRecord
100
AcDbLayerTableRecord
  2
40
 70
     0
 62
     2
  6
Continuous
290
     1
370
    -3
390
1F
  0
LAYER
  5
52
100
AcDbSymbolTableRecord
100
AcDbLayerTableRecord
  2
41
 70
     0
 62
     7
  6
Continuous
290
     1
370
    -3
390
1F
  0
LAYER
  5
53
100
AcDbSymbolTableRecord
100
AcDbLayerTableRecord
  2
42
 70
     0
 62
     4
  6
Continuous
290
     1
370
    -3
390
1F
  0
LAYER
  5
54
100
AcDbSymbolTableRecord
100
AcDbLayerTableRecord
  2
43
 70
     0
 62
     3
  6
Continuous
290
     1
370
    -3
390
1F
  0
LAYER
  5
55
100
AcDbSymbolTableRecord
100
AcDbLayerTableRecord
  2
44
 70
     0
 62
     6
  6
Continuous
290
     1
370
    -3
390
1F
  0
LAYER
  5
56
100
AcDbSymbolTableRecord
100
AcDbLayerTableRecord
  2
45
 70
     0
 62
     2
  6
Continuous
290
     1
370
    -3
390
1F
  0
LAYER
  5
57
100
AcDbSymbolTableRecord
100
AcDbLayerTableRecord
  2
46
 70
     0
 62
     7
  6
Continuous
290
     1
370
    -3
390
1F
  0
LAYER
  5
58
100
AcDbSymbolTableRecord
100
AcDbLayerTableRecord
  2
47
 70
     0
 62
     4
  6
Continuous
290
     1
370
    -3
390
1F
  0
LAYER
  5
59
100
AcDbSymbolTableRecord
100
AcDbLayerTableRecord
  2
48
 70
     0
 62
     3
  6
Continuous
290
     1
370
    -3
390
1F
  0
LAYER
  5
5A
100
AcDbSymbolTableRecord
100
AcDbLayerTableRecord
  2
49
 70
     0
 62
     6
  6
Continuous
290
     1
370
    -3
390
1F
  0
LAYER
  5
5B
100
AcDbSymbolTableRecord
100
AcDbLayerTableRecord
  2
50
 70
     0
 62
     2
  6
Continuous
290
     1
370
    -3
390
1F
  0
LAYER
  5
5C
100
AcDbSymbolTableRecord
100
AcDbLayerTableRecord
  2
51
 70
     0
 62
     7
  6
Continuous
290
     1
370
    -3
390
1F
  0
LAYER
  5
5D
100
AcDbSymbolTableRecord
100
AcDbLayerTableRecord
  2
52
 70
     0
 62
     4
  6
Continuous
290
     1
370
    -3
390
1F
  0
LAYER
  5
5E
100
AcDbSymbolTableRecord
100
AcDbLayerTableRecord
  2
53
 70
     0
 62
     3
  6
Continuous
290
     1
370
    -3
390
1F
  0
LAYER
  5
5F
100
AcDbSymbolTableRecord
100
AcDbLayerTableRecord
  2
54
 70
     0
 62
     6
  6
Continuous
290
     1
370
    -3
390
1F
  0
LAYER
  5
60
100
AcDbSymbolTableRecord
100
AcDbLayerTableRecord
  2
55
 70
     0
 62
     2
  6
Continuous
290
     1
370
    -3
390
1F
  0
LAYER
  5
61
100
AcDbSymbolTableRecord
100
AcDbLayerTableRecord
  2
56
 70
     0
 62
     7
  6
Continuous
290
     1
370
    -3
390
1F
  0
LAYER
  5
62
100
AcDbSymbolTableRecord
100
AcDbLayerTableRecord
  2
57
 70
     0
 62
     4
  6
Continuous
290
     1
370
    -3
390
1F
  0
LAYER
  5
63
100
AcDbSymbolTableRecord
100
AcDbLayerTableRecord
  2
58
 70
     0
 62
     3
  6
Continuous
290
     1
370
    -3
390
1F
  0
LAYER
  5
64
100
AcDbSymbolTableRecord
100
AcDbLayerTableRecord
  2
59
 70
     0
 62
     6
  6
Continuous
290
     1
370
    -3
390
1F
  0
LAYER
  5
65
100
AcDbSymbolTableRecord
100
AcDbLayerTableRecord
  2
60
 70
     0
 62
     2
  6
Continuous
290
     1
370
    -3
390
1F
  0
LAYER
  5
66
100
AcDbSymbolTableRecord
100
AcDbLayerTableRecord
  2
61
 70
     0
 62
     7
  6
Continuous
290
     1
370
    -3
390
1F
  0
LAYER
  5
67
100
AcDbSymbolTableRecord
100
AcDbLayerTableRecord
  2
62
 70
     0
 62
     4
  6
Continuous
290
     1
370
    -3
390
1F
  0
LAYER
  5
68
100
AcDbSymbolTableRecord
100
AcDbLayerTableRecord
  2
63
 70
     0
 62
     3
  6
Continuous
290
     1
370
    -3
390
1F
  0
LAYER
  5
69
100
AcDbSymbolTableRecord
100
AcDbLayerTableRecord
  2
64
 70
     0
 62
     6
  6
Continuous
290
     1
370
    -3
390
1F
  0
LAYER
  5
6A
100
AcDbSymbolTableRecord
100
AcDbLayerTableRecord
  2
65
 70
     0
 62
     2
  6
Continuous
290
     1
370
    -3
390
1F
  0
LAYER
  5
6B
100
AcDbSymbolTableRecord
100
AcDbLayerTableRecord
  2
66
 70
     0
 62
     7
  6
Continuous
290
     1
370
    -3
390
1F
  0
LAYER
  5
6C
100
AcDbSymbolTableRecord
100
AcDbLayerTableRecord
  2
67
 70
     0
 62
     4
  6
Continuous
290
     1
370
    -3
390
1F
  0
LAYER
  5
6D
100
AcDbSymbolTableRecord
100
AcDbLayerTableRecord
  2
68
 70
     0
 62
     3
  6
Continuous
290
     1
370
    -3
390
1F
  0
LAYER
  5
6E
100
AcDbSymbolTableRecord
100
AcDbLayerTableRecord
  2
69
 70
     0
 62
     6
  6
Continuous
290
     1
370
    -3
390
1F
  0
LAYER
  5
6F
100
AcDbSymbolTableRecord
100
AcDbLayerTableRecord
  2
70
 70
     0
 62
     2
  6
Continuous
290
     1
370
    -3
390
1F
  0
LAYER
  5
70
100
AcDbSymbolTableRecord
100
AcDbLayerTableRecord
  2
71
 70
     0
 62
     7
  6
Continuous
290
     1
370
    -3
390
1F
  0
LAYER
  5
71
100
AcDbSymbolTableRecord
100
AcDbLayerTableRecord
  2
72
 70
     0
 62
     4
  6
Continuous
290
     1
370
    -3
390
1F
  0
LAYER
  5
72
100
AcDbSymbolTableRecord
100
AcDbLayerTableRecord
  2
73
 70
     0
 62
     3
  6
Continuous
290
     1
370
    -3
390
1F
  0
LAYER
  5
73
100
AcDbSymbolTableRecord
100
AcDbLayerTableRecord
  2
74
 70
     0
 62
     6
  6
Continuous
290
     1
370
    -3
390
1F
  0
LAYER
  5
74
100
AcDbSymbolTableRecord
100
AcDbLayerTableRecord
  2
75
 70
     0
 62
     2
  6
Continuous
290
     1
370
    -3
390
1F
  0
LAYER
  5
75
100
AcDbSymbolTableRecord
100
AcDbLayerTableRecord
  2
76
 70
     0
 62
     7
  6
Continuous
290
     1
370
    -3
390
1F
  0
LAYER
  5
76
100
AcDbSymbolTableRecord
100
AcDbLayerTableRecord
  2
77
 70
     0
 62
     4
  6
Continuous
290
     1
370
    -3
390
1F
  0
LAYER
  5
77
100
AcDbSymbolTableRecord
100
AcDbLayerTableRecord
  2
78
 70
     0
 62
     3
  6
Continuous
290
     1
370
    -3
390
1F
  0
LAYER
  5
78
100
AcDbSymbolTableRecord
100
AcDbLayerTableRecord
  2
79
 70
     0
 62
     6
  6
Continuous
290
     1
370
    -3
390
1F
  0
LAYER
  5
79
100
AcDbSymbolTableRecord
100
AcDbLayerTableRecord
  2
80
 70
     0
 62
     2
  6
Continuous
290
     1
370
    -3
390
1F
  0
LAYER
  5
7A
100
AcDbSymbolTableRecord
100
AcDbLayerTableRecord
  2
81
 70
     0
 62
     7
  6
Continuous
290
     1
370
    -3
390
1F
  0
LAYER
  5
7B
100
AcDbSymbolTableRecord
100
AcDbLayerTableRecord
  2
82
 70
     0
 62
     4
  6
Continuous
290
     1
370
    -3
390
1F
  0
LAYER
  5
7C
100
AcDbSymbolTableRecord
100
AcDbLayerTableRecord
  2
83
 70
     0
 62
     3
  6
Continuous
290
     1
370
    -3
390
1F
  0
LAYER
  5
7D
100
AcDbSymbolTableRecord
100
AcDbLayerTableRecord
  2
84
 70
     0
 62
     6
  6
Continuous
290
     1
370
    -3
390
1F
  0
LAYER
  5
7E
100
AcDbSymbolTableRecord
100
AcDbLayerTableRecord
  2
85
 70
     0
 62
     2
  6
Continuous
290
     1
370
    -3
390
1F
  0
LAYER
  5
7F
100
AcDbSymbolTableRecord
100
AcDbLayerTableRecord
  2
86
 70
     0
 62
     7
  6
Continuous
290
     1
370
    -3
390
1F
  0
LAYER
  5
80
100
AcDbSymbolTableRecord
100
AcDbLayerTableRecord
  2
87
 70
     0
 62
     4
  6
Continuous
290
     1
370
    -3
390
1F
  0
LAYER
  5
81
100
AcDbSymbolTableRecord
100
AcDbLayerTableRecord
  2
88
 70
     0
 62
     3
  6
Continuous
290
     1
370
    -3
390
1F
  0
LAYER
  5
82
100
AcDbSymbolTableRecord
100
AcDbLayerTableRecord
  2
89
 70
     0
 62
     6
  6
Continuous
290
     1
370
    -3
390
1F
  0
LAYER
  5
83
100
AcDbSymbolTableRecord
100
AcDbLayerTableRecord
  2
90
 70
     0
 62
     2
  6
Continuous
290
     1
370
    -3
390
1F
  0
LAYER
  5
84
100
AcDbSymbolTableRecord
100
AcDbLayerTableRecord
  2
91
 70
     0
 62
     7
  6
Continuous
290
     1
370
    -3
390
1F
  0
LAYER
  5
85
100
AcDbSymbolTableRecord
100
AcDbLayerTableRecord
  2
92
 70
     0
 62
     4
  6
Continuous
290
     1
370
    -3
390
1F
  0
LAYER
  5
86
100
AcDbSymbolTableRecord
100
AcDbLayerTableRecord
  2
93
 70
     0
 62
     3
  6
Continuous
290
     1
370
    -3
390
1F
  0
LAYER
  5
87
100
AcDbSymbolTableRecord
100
AcDbLayerTableRecord
  2
94
 70
     0
 62
     6
  6
Continuous
290
     1
370
    -3
390
1F
  0
LAYER
  5
88
100
AcDbSymbolTableRecord
100
AcDbLayerTableRecord
  2
95
 70
     0
 62
     2
  6
Continuous
290
     1
370
    -3
390
1F
  0
LAYER
  5
89
100
AcDbSymbolTableRecord
100
AcDbLayerTableRecord
  2
96
 70
     0
 62
     7
  6
Continuous
290
     1
370
    -3
390
1F
  0
LAYER
  5
8A
100
AcDbSymbolTableRecord
100
AcDbLayerTableRecord
  2
97
 70
     0
 62
     4
  6
Continuous
290
     1
370
    -3
390
1F
  0
LAYER
  5
8B
100
AcDbSymbolTableRecord
100
AcDbLayerTableRecord
  2
98
 70
     0
 62
     3
  6
Continuous
290
     1
370
    -3
390
1F
  0
LAYER
  5
8C
100
AcDbSymbolTableRecord
100
AcDbLayerTableRecord
  2
99
 70
     0
 62
     6
  6
Continuous
290
     1
370
    -3
390
1F
  0
LAYER
  5
8D
100
AcDbSymbolTableRecord
100
AcDbLayerTableRecord
  2
100
 70
     0
 62
     2
  6
Continuous
290
     1
370
    -3
390
1F
  0
LAYER
  5
8E
100
AcDbSymbolTableRecord
100
AcDbLayerTableRecord
  2
101
 70
     0
 62
     7
  6
Continuous
290
     1
370
    -3
390
1F
  0
LAYER
  5
8F
100
AcDbSymbolTableRecord
100
AcDbLayerTableRecord
  2
102
 70
     0
 62
     4
  6
Continuous
290
     1
370
    -3
390
1F
  0
LAYER
  5
90
100
AcDbSymbolTableRecord
100
AcDbLayerTableRecord
  2
103
 70
     0
 62
     3
  6
Continuous
290
     1
370
    -3
390
1F
  0
LAYER
  5
91
100
AcDbSymbolTableRecord
100
AcDbLayerTableRecord
  2
104
 70
     0
 62
     6
  6
Continuous
290
     1
370
    -3
390
1F
  0
LAYER
  5
92
100
AcDbSymbolTableRecord
100
AcDbLayerTableRecord
  2
105
 70
     0
 62
     2
  6
Continuous
290
     1
370
    -3
390
1F
  0
LAYER
  5
93
100
AcDbSymbolTableRecord
100
AcDbLayerTableRecord
  2
106
 70
     0
 62
     7
  6
Continuous
290
     1
370
    -3
390
1F
  0
LAYER
  5
94
100
AcDbSymbolTableRecord
100
AcDbLayerTableRecord
  2
107
 70
     0
 62
     4
  6
Continuous
290
     1
370
    -3
390
1F
  0
LAYER
  5
95
100
AcDbSymbolTableRecord
100
AcDbLayerTableRecord
  2
108
 70
     0
 62
     3
  6
Continuous
290
     1
370
    -3
390
1F
  0
LAYER
  5
96
100
AcDbSymbolTableRecord
100
AcDbLayerTableRecord
  2
109
 70
     0
 62
     6
  6
Continuous
290
     1
370
    -3
390
1F
  0
LAYER
  5
97
100
AcDbSymbolTableRecord
100
AcDbLayerTableRecord
  2
110
 70
     0
 62
     2
  6
Continuous
290
     1
370
    -3
390
1F
  0
LAYER
  5
98
100
AcDbSymbolTableRecord
100
AcDbLayerTableRecord
  2
111
 70
     0
 62
     7
  6
Continuous
290
     1
370
    -3
390
1F
  0
LAYER
  5
99
100
AcDbSymbolTableRecord
100
AcDbLayerTableRecord
  2
112
 70
     0
 62
     4
  6
Continuous
290
     1
370
    -3
390
1F
  0
LAYER
  5
9A
100
AcDbSymbolTableRecord
100
AcDbLayerTableRecord
  2
113
 70
     0
 62
     3
  6
Continuous
290
     1
370
    -3
390
1F
  0
LAYER
  5
9B
100
AcDbSymbolTableRecord
100
AcDbLayerTableRecord
  2
114
 70
     0
 62
     6
  6
Continuous
290
     1
370
    -3
390
1F
  0
LAYER
  5
9C
100
AcDbSymbolTableRecord
100
AcDbLayerTableRecord
  2
115
 70
     0
 62
     2
  6
Continuous
290
     1
370
    -3
390
1F
  0
LAYER
  5
9D
100
AcDbSymbolTableRecord
100
AcDbLayerTableRecord
  2
116
 70
     0
 62
     7
  6
Continuous
290
     1
370
    -3
390
1F
  0
LAYER
  5
9E
100
AcDbSymbolTableRecord
100
AcDbLayerTableRecord
  2
117
 70
     0
 62
     4
  6
Continuous
290
     1
370
    -3
390
1F
  0
LAYER
  5
9F
100
AcDbSymbolTableRecord
100
AcDbLayerTableRecord
  2
118
 70
     0
 62
     3
  6
Continuous
290
     1
370
    -3
390
1F
  0
LAYER
  5
A0
100
AcDbSymbolTableRecord
100
AcDbLayerTableRecord
  2
119
 70
     0
 62
     6
  6
Continuous
290
     1
370
    -3
390
1F
  0
LAYER
  5
A1
100
AcDbSymbolTableRecord
100
AcDbLayerTableRecord
  2
120
 70
     0
 62
     2
  6
Continuous
290
     1
370
    -3
390
1F
  0
LAYER
  5
A2
100
AcDbSymbolTableRecord
100
AcDbLayerTableRecord
  2
121
 70
     0
 62
     7
  6
Continuous
290
     1
370
    -3
390
1F
  0
LAYER
  5
A3
100
AcDbSymbolTableRecord
100
AcDbLayerTableRecord
  2
122
 70
     0
 62
     4
  6
Continuous
290
     1
370
    -3
390
1F
  0
LAYER
  5
A4
100
AcDbSymbolTableRecord
100
AcDbLayerTableRecord
  2
123
 70
     0
 62
     3
  6
Continuous
290
     1
370
    -3
390
1F
  0
LAYER
  5
A5
100
AcDbSymbolTableRecord
100
AcDbLayerTableRecord
  2
124
 70
     0
 62
     6
  6
Continuous
290
     1
370
    -3
390
1F
  0
LAYER
  5
A6
100
AcDbSymbolTableRecord
100
AcDbLayerTableRecord
  2
125
 70
     0
 62
     2
  6
Continuous
290
     1
370
    -3
390
1F
  0
LAYER
  5
A7
100
AcDbSymbolTableRecord
100
AcDbLayerTableRecord
  2
126
 70
     0
 62
     7
  6
Continuous
290
     1
370
    -3
390
1F
  0
LAYER
  5
A8
100
AcDbSymbolTableRecord
100
AcDbLayerTableRecord
  2
127
 70
     0
 62
     7
  6
Continuous
290
     1
370
    -3
390
1F
  0
LAYER
  5
A9
100
AcDbSymbolTableRecord
100
AcDbLayerTableRecord
  2
128
 70
     0
 62
     7
  6
Continuous
290
     1
370
    -3
390
1F
  0
LAYER
  5
AA
100
AcDbSymbolTableRecord
100
AcDbLayerTableRecord
  2
129
 70
     0
 62
     7
  6
Continuous
290
     1
370
    -3
390
1F
  0
ENDTAB
  0
TABLE
  2
STYLE
  5
3
100
AcDbSymbolTable
 70
     1
  0
STYLE
  5
17
100
AcDbSymbolTableRecord
100
AcDbTextStyleTableRecord
  2
Standard
 70
     0
 40
0.0
 41
1.0
 50
0.0
 71
     0
 42
0.0
  3
txt
  4
bigfont
  0
ENDTAB
  0
TABLE
  2
VIEW
  5
5
100
AcDbSymbolTable
 70
     0
  0
ENDTAB
  0
TABLE
  2
UCS
  5
6
100
AcDbSymbolTable
 70
     0
  0
ENDTAB
  0
TABLE
  2
APPID
  5
8
100
AcDbSymbolTable
 70
     1
  0
APPID
  5
16
100
AcDbSymbolTableRecord
100
AcDbRegAppTableRecord
  2
ACAD
 70
     0
  0
ENDTAB
  0
TABLE
  2
DIMSTYLE
  5
9
100
AcDbSymbolTable
 70
     1
100
AcDbDimStyleTable
 71
     0
  0
DIMSTYLE
105
18
100
AcDbSymbolTableRecord
100
AcDbDimStyleTableRecord
  2
Standard
 70
     0
  3

  4

 40
1.0
 41
0.18
 42
0.0625
 43
0.38
 44
0.18
 45
0.0
 46
0.0
 47
0.0
 48
0.0
 71
     0
 72
     0
 73
     1
 74
     1
 75
     0
 76
     0
 77
     0
 78
     0
 79
     0
140
0.18
141
0.09
142
0.0
143
25.4
144
1.0
145
0.0
146
1.0
147
0.09
148
0.0
170
     0
171
     2
172
     0
173
     0
174
     0
175
     0
176
     0
177
     0
178
     0
179
     0
271
     4
272
     4
273
     2
274
     2
275
     0
276
     0
277
     2
278
    46
279
     0
280
     0
281
     0
282
     0
283
     1
284
     0
285
     0
286
     0
288
     0
340
17
341
0
342
0
343
0
344
0
371
    -2
372
    -2
  0
ENDTAB
  0
TABLE
  2
BLOCK_RECORD
  5
1
100
AcDbSymbolTable
 70
     0
  0
BLOCK_RECORD
  5
A
100
AcDbSymbolTableRecord
100
AcDbBlockTableRecord
  2
*MODEL_SPACE
340
20
  0
BLOCK_RECORD
  5
B
100
AcDbSymbolTableRecord
100
AcDbBlockTableRecord
  2
*PAPER_SPACE
340
21
  0
ENDTAB
  0
ENDSEC
  0
SECTION
  2
BLOCKS
  0
BLOCK
  5
D
100
AcDbEntity
  8
0
100
AcDbBlockBegin
  2
*MODEL_SPACE
 70
     0
 10
0.0
 20
0.0
 30
0.0
  3
*MODEL_SPACE
  1

  0
ENDBLK
  5
E
100
AcDbEntity
  8
0
100
AcDbBlockEnd
  0
BLOCK
  5
F
100
AcDbEntity
 67
     1
  8
0
100
AcDbBlockBegin
  2
*PAPER_SPACE
 70
     0
 10
0.0
 20
0.0
 30
0.0
  3
*PAPER_SPACE
  1

  0
ENDBLK
  5
10
100
AcDbEntity
 67
     1
  8
0
100
AcDbBlockEnd
  0
ENDSEC
  0
SECTION
  2
ENTITIES
  0
LINE
  5
AB
100
AcDbEntity
  8
2
  6
CENTER
 62
     1
100
AcDbLine
 10
288.546413
 20
139.72718
 30
0.0
 11
288.546413
 21
139.827183
 31
0.0
  0
TEXT
  5
AC
100
AcDbEntity
  8
2
  6
Continuous
 62
     1
100
AcDbText
 10
228.869215
 20
88.529177
 30
0.0
 40
30.0
  1
250A　G1
 41
0.555556
 11
228.869215
 21
88.529177
 31
0.0
100
AcDbText
 73
     1
  0
TEXT
  5
AD
100
AcDbEntity
  8
2
  6
Continuous
 62
     1
100
AcDbText
 10
226.712621
 20
51.221484
 30
0.0
 40
20.0
  1
 取付長 220
 41
0.705128
 11
226.712621
 21
51.221484
 31
0.0
100
AcDbText
 73
     1
  0
TEXT
  5
AE
100
AcDbEntity
  8
2
  6
Continuous
 62
     1
100
AcDbText
 10
218.271527
 20
22.810736
 30
0.0
 40
20.0
  1
伸縮量　+36,-60
 41
0.657895
 11
218.271527
 21
22.810736
 31
0.0
100
AcDbText
 73
     1
  0
TEXT
  5
AF
100
AcDbEntity
  8
2
  6
Continuous
 62
     1
100
AcDbText
 10
676.369229
 20
88.529177
 30
0.0
 40
30.0
  1
250A　G2
 41
0.555556
 11
676.369229
 21
88.529177
 31
0.0
100
AcDbText
 73
     1
  0
TEXT
  5
B0
100
AcDbEntity
  8
2
  6
Continuous
 62
     1
100
AcDbText
 10
674.212636
 20
51.221484
 30
0.0
 40
20.0
  1
 取付長 280
 41
0.705128
 11
674.212636
 21
51.221484
 31
0.0
100
AcDbText
 73
     1
  0
TEXT
  5
B1
100
AcDbEntity
  8
2
  6
Continuous
 62
     1
100
AcDbText
 10
665.771541
 20
22.810736
 30
0.0
 40
20.0
  1
伸縮量　+22,-75
 41
0.657895
 11
665.771541
 21
22.810736
 31
0.0
100
AcDbText
 73
     1
  0
TEXT
  5
B2
100
AcDbEntity
  8
2
  6
Continuous
 62
     1
100
AcDbText
 10
1123.869244
 20
88.529177
 30
0.0
 40
30.0
  1
250A　G3
 41
0.555556
 11
1123.869244
 21
88.529177
 31
0.0
100
AcDbText
 73
     1
  0
TEXT
  5
B3
100
AcDbEntity
  8
2
  6
Continuous
 62
     1
100
AcDbText
 10
1121.71265
 20
51.221484
 30
0.0
 40
20.0
  1
 取付長 320
 41
0.705128
 11
1121.71265
 21
51.221484
 31
0.0
100
AcDbText
 73
     1
  0
TEXT
  5
B4
100
AcDbEntity
  8
2
  6
Continuous
 62
     1
100
AcDbText
 10
1113.271556
 20
22.810736
 30
0.0
 40
20.0
  1
伸縮量　+30,-110
 41
0.645161
 11
1113.271556
 21
22.810736
 31
0.0
100
AcDbText
 73
     1
  0
TEXT
  5
B5
100
AcDbEntity
  8
2
  6
Continuous
 62
     1
100
AcDbText
 10
1571.369258
 20
88.529177
 30
0.0
 40
30.0
  1
250A　G4
 41
0.555556
 11
1571.369258
 21
88.529177
 31
0.0
100
AcDbText
 73
     1
  0
TEXT
  5
B6
100
AcDbEntity
  8
2
  6
Continuous
 62
     1
100
AcDbText
 10
1569.212665
 20
51.221484
 30
0.0
 40
20.0
  1
 取付長 360
 41
0.705128
 11
1569.212665
 21
51.221484
 31
0.0
100
AcDbText
 73
     1
  0
TEXT
  5
B7
100
AcDbEntity
  8
2
  6
Continuous
 62
     1
100
AcDbText
 10
1560.77157
 20
22.810736
 30
0.0
 40
20.0
  1
伸縮量　+16,-135
 41
0.645161
 11
1560.77157
 21
22.810736
 31
0.0
100
AcDbText
 73
     1
  0
TEXT
  5
B8
100
AcDbEntity
  8
2
  6
Continuous
 62
     1
100
AcDbText
 10
2018.869273
 20
88.529177
 30
0.0
 40
30.0
  1
250A　G5
 41
0.555556
 11
2018.869273
 21
88.529177
 31
0.0
100
AcDbText
 73
     1
  0
TEXT
  5
B9
100
AcDbEntity
  8
2
  6
Continuous
 62
     1
100
AcDbText
 10
2016.712679
 20
51.221484
 30
0.0
 40
20.0
  1
 取付長 390
 41
0.705128
 11
2016.712679
 21
51.221484
 31
0.0
100
AcDbText
 73
     1
  0
TEXT
  5
BA
100
AcDbEntity
  8
2
  6
Continuous
 62
     1
100
AcDbText
 10
2008.271585
 20
22.810736
 30
0.0
 40
20.0
  1
伸縮量　+26,-150
 41
0.645161
 11
2008.271585
 21
22.810736
 31
0.0
100
AcDbText
 73
     1
  0
TEXT
  5
BB
100
AcDbEntity
  8
2
  6
Continuous
 62
     1
100
AcDbText
 10
2466.369287
 20
88.529177
 30
0.0
 40
30.0
  1
250A　G6
 41
0.555556
 11
2466.369287
 21
88.529177
 31
0.0
100
AcDbText
 73
     1
  0
TEXT
  5
BC
100
AcDbEntity
  8
2
  6
Continuous
 62
     1
100
AcDbText
 10
2464.212694
 20
51.221484
 30
0.0
 40
20.0
  1
 取付長 420
 41
0.705128
 11
2464.212694
 21
51.221484
 31
0.0
100
AcDbText
 73
     1
  0
TEXT
  5
BD
100
AcDbEntity
  8
2
  6
Continuous
 62
     1
100
AcDbText
 10
2455.771599
 20
22.810736
 30
0.0
 40
20.0
  1
伸縮量　+36,-175
 41
0.645161
 11
2455.771599
 21
22.810736
 31
0.0
100
AcDbText
 73
     1
  0
TEXT
  5
BE
100
AcDbEntity
  8
2
  6
Continuous
 62
     1
100
AcDbText
 10
2913.869302
 20
88.529177
 30
0.0
 40
30.0
  1
250A　G7
 41
0.555556
 11
2913.869302
 21
88.529177
 31
0.0
100
AcDbText
 73
     1
  0
TEXT
  5
BF
100
AcDbEntity
  8
2
  6
Continuous
 62
     1
100
AcDbText
 10
2911.712708
 20
51.221484
 30
0.0
 40
20.0
  1
 取付長 445
 41
0.705128
 11
2911.712708
 21
51.221484
 31
0.0
100
AcDbText
 73
     1
  0
TEXT
  5
C0
100
AcDbEntity
  8
2
  6
Continuous
 62
     1
100
AcDbText
 10
2903.271614
 20
22.810736
 30
0.0
 40
20.0
  1
伸縮量　+31,-185
 41
0.645161
 11
2903.271614
 21
22.810736
 31
0.0
100
AcDbText
 73
     1
  0
LINE
  5
C1
100
AcDbEntity
  8
2
  6
CENTER
 62
     1
100
AcDbLine
 10
49.181088
 20
718.279267
 30
0.0
 11
527.911738
 21
718.279267
 31
0.0
  0
LINE
  5
C2
100
AcDbEntity
  8
2
  6
CENTER
 62
     1
100
AcDbLine
 10
288.546413
 20
957.644592
 30
0.0
 11
288.546413
 21
478.913942
 31
0.0
  0
CIRCLE
  5
C3
100
AcDbEntity
  8
2
  6
PHANTOM
 62
     1
100
AcDbCircle
 10
288.546413
 20
718.279267
 30
0.0
 40
172.5
  0
CIRCLE
  5
C4
100
AcDbEntity
  8
2
  6
Continuous
 62
     1
100
AcDbCircle
 10
288.546413
 20
718.279267
 30
0.0
 40
192.5
  0
CIRCLE
  5
C5
100
AcDbEntity
  8
2
  6
Continuous
 62
     1
100
AcDbCircle
 10
288.546413
 20
718.279267
 30
0.0
 40
160.0
  0
CIRCLE
  5
C6
100
AcDbEntity
  8
2
  6
Continuous
 62
     1
100
AcDbCircle
 10
288.546413
 20
718.279267
 30
0.0
 40
133.5
  0
CIRCLE
  5
C7
100
AcDbEntity
  8
2
  6
HIDDEN
 62
     1
100
AcDbCircle
 10
288.546413
 20
718.279267
 30
0.0
 40
135.0
  0
LINE
  5
C8
100
AcDbEntity
  8
2
  6
CENTER
 62
     1
100
AcDbLine
 10
454.494599
 20
814.089497
 30
0.0
 11
421.376991
 21
794.969037
 31
0.0
  0
CIRCLE
  5
C9
100
AcDbEntity
  8
2
  6
Continuous
 62
     1
100
AcDbCircle
 10
437.935795
 20
804.529267
 30
0.0
 40
11.5
  0
CIRCLE
  5
CA
100
AcDbEntity
  8
2
  6
Continuous
 62
     1
100
AcDbCircle
 10
461.046413
 20
718.279267
 30
0.0
 40
11.5
  0
LINE
  5
CB
100
AcDbEntity
  8
2
  6
CENTER
 62
     1
100
AcDbLine
 10
384.356643
 20
884.227453
 30
0.0
 11
365.236183
 21
851.109845
 31
0.0
  0
CIRCLE
  5
CC
100
AcDbEntity
  8
2
  6
Continuous
 62
     1
100
AcDbCircle
 10
374.796413
 20
867.668649
 30
0.0
 40
11.5
  0
CIRCLE
  5
CD
100
AcDbEntity
  8
2
  6
Continuous
 62
     1
100
AcDbCircle
 10
288.546413
 20
890.779267
 30
0.0
 40
11.5
  0
LINE
  5
CE
100
AcDbEntity
  8
2
  6
CENTER
 62
     1
100
AcDbLine
 10
122.598228
 20
814.089497
 30
0.0
 11
155.715836
 21
794.969037
 31
0.0
  0
CIRCLE
  5
CF
100
AcDbEntity
  8
2
  6
Continuous
 62
     1
100
AcDbCircle
 10
139.157032
 20
804.529267
 30
0.0
 40
11.5
  0
CIRCLE
  5
D0
100
AcDbEntity
  8
2
  6
Continuous
 62
     1
100
AcDbCircle
 10
116.046414
 20
718.279267
 30
0.0
 40
11.5
  0
LINE
  5
D1
100
AcDbEntity
  8
2
  6
CENTER
 62
     1
100
AcDbLine
 10
192.736184
 20
884.227453
 30
0.0
 11
211.856644
 21
851.109845
 31
0.0
  0
CIRCLE
  5
D2
100
AcDbEntity
  8
2
  6
Continuous
 62
     1
100
AcDbCircle
 10
202.296414
 20
867.668649
 30
0.0
 40
11.5
  0
LINE
  5
D3
100
AcDbEntity
  8
2
  6
CENTER
 62
     1
100
AcDbLine
 10
454.494599
 20
622.469037
 30
0.0
 11
421.376991
 21
641.589497
 31
0.0
  0
CIRCLE
  5
D4
100
AcDbEntity
  8
2
  6
Continuous
 62
     1
100
AcDbCircle
 10
437.935795
 20
632.029267
 30
0.0
 40
11.5
  0
LINE
  5
D5
100
AcDbEntity
  8
2
  6
CENTER
 62
     1
100
AcDbLine
 10
384.356643
 20
552.331081
 30
0.0
 11
365.236183
 21
585.448689
 31
0.0
  0
CIRCLE
  5
D6
100
AcDbEntity
  8
2
  6
Continuous
 62
     1
100
AcDbCircle
 10
374.796413
 20
568.889885
 30
0.0
 40
11.5
  0
CIRCLE
  5
D7
100
AcDbEntity
  8
2
  6
Continuous
 62
     1
100
AcDbCircle
 10
288.546413
 20
545.779267
 30
0.0
 40
11.5
  0
LINE
  5
D8
100
AcDbEntity
  8
2
  6
CENTER
 62
     1
100
AcDbLine
 10
122.598228
 20
622.469037
 30
0.0
 11
155.715836
 21
641.589497
 31
0.0
  0
CIRCLE
  5
D9
100
AcDbEntity
  8
2
  6
Continuous
 62
     1
100
AcDbCircle
 10
139.157032
 20
632.029267
 30
0.0
 40
11.5
  0
LINE
  5
DA
100
AcDbEntity
  8
2
  6
CENTER
 62
     1
100
AcDbLine
 10
192.736184
 20
552.331081
 30
0.0
 11
211.856644
 21
585.448689
 31
0.0
  0
CIRCLE
  5
DB
100
AcDbEntity
  8
2
  6
Continuous
 62
     1
100
AcDbCircle
 10
202.296414
 20
568.889885
 30
0.0
 40
11.5
  0
LINE
  5
DC
100
AcDbEntity
  8
2
  6
Continuous
 62
     1
100
AcDbLine
 10
96.046406
 20
216.640405
 30
0.0
 11
96.046406
 21
196.640401
 31
0.0
  0
LINE
  5
DD
100
AcDbEntity
  8
2
  6
CENTER
 62
     1
100
AcDbLine
 10
116.046404
 20
183.840402
 30
0.0
 11
116.046404
 21
232.640406
 31
0.0
  0
LINE
  5
DE
100
AcDbEntity
  8
2
  6
CENTER
 62
     1
100
AcDbLine
 10
116.046404
 20
183.840402
 30
0.0
 11
116.046404
 21
232.640406
 31
0.0
  0
LINE
  5
DF
100
AcDbEntity
  8
2
  6
Continuous
 62
     1
100
AcDbLine
 10
151.646408
 20
215.940406
 30
0.0
 11
140.446407
 21
230.140403
 31
0.0
  0
ARC
  5
E0
100
AcDbEntity
  8
2
  6
Continuous
 62
     1
100
AcDbCircle
 10
144.046414
 20
232.640406
 30
0.0
 40
4.500001
100
AcDbArc
 50
144.901026
 51
-147.719137
  0
ARC
  5
E1
100
AcDbEntity
  8
2
  6
Continuous
 62
     1
100
AcDbCircle
 10
147.24641
 20
248.640406
 30
0.0
 40
3.000001
100
AcDbArc
 50
90.01167
 51
-90.022287
  0
LINE
  5
E2
100
AcDbEntity
  8
2
  6
Continuous
 62
     1
100
AcDbLine
 10
148.74641
 20
245.640405
 30
0.0
 11
140.446407
 21
235.140403
 31
0.0
  0
LINE
  5
E3
100
AcDbEntity
  8
2
  6
Continuous
 62
     1
100
AcDbLine
 10
140.446407
 20
262.140404
 30
0.0
 11
148.74641
 21
251.640407
 31
0.0
  0
ARC
  5
E4
100
AcDbEntity
  8
2
  6
Continuous
 62
     1
100
AcDbCircle
 10
144.046414
 20
264.640401
 30
0.0
 40
4.500001
100
AcDbArc
 50
144.901026
 51
-147.719137
  0
LINE
  5
E5
100
AcDbEntity
  8
2
  6
Continuous
 62
     1
100
AcDbLine
 10
148.74641
 20
277.640407
 30
0.0
 11
140.446407
 21
267.140404
 31
0.0
  0
LINE
  5
E6
100
AcDbEntity
  8
2
  6
Continuous
 62
     1
100
AcDbLine
 10
140.446407
 20
262.140404
 30
0.0
 11
148.74641
 21
251.640407
 31
0.0
  0
LINE
  5
E7
100
AcDbEntity
  8
2
  6
Continuous
 62
     1
100
AcDbLine
 10
144.246409
 20
264.640401
 30
0.0
 11
288.546413
 21
264.640401
 31
0.0
  0
LINE
  5
E8
100
AcDbEntity
  8
2
  6
Continuous
 62
     1
100
AcDbLine
 10
147.24641
 20
251.640407
 30
0.0
 11
288.546413
 21
251.640407
 31
0.0
  0
LINE
  5
E9
100
AcDbEntity
  8
2
  6
CENTER
 62
     1
100
AcDbLine
 10
141.046408
 20
248.640406
 30
0.0
 11
288.546413
 21
248.640406
 31
0.0
  0
LINE
  5
EA
100
AcDbEntity
  8
2
  6
Continuous
 62
     1
100
AcDbLine
 10
147.24641
 20
245.640405
 30
0.0
 11
288.546413
 21
245.640405
 31
0.0
  0
LINE
  5
EB
100
AcDbEntity
  8
2
  6
Continuous
 62
     1
100
AcDbLine
 10
144.246409
 20
232.640406
 30
0.0
 11
288.546413
 21
232.640406
 31
0.0
  0
LINE
  5
EC
100
AcDbEntity
  8
2
  6
Continuous
 62
     1
100
AcDbLine
 10
288.546413
 20
216.640405
 30
0.0
 11
96.046406
 21
216.640405
 31
0.0
  0
LINE
  5
ED
100
AcDbEntity
  8
2
  6
Continuous
 62
     1
100
AcDbLine
 10
128.546413
 20
196.640401
 30
0.0
 11
128.546413
 21
189.840409
 31
0.0
  0
LINE
  5
EE
100
AcDbEntity
  8
2
  6
Continuous
 62
     1
100
AcDbLine
 10
96.046406
 20
196.640401
 30
0.0
 11
288.546413
 21
196.640401
 31
0.0
  0
LINE
  5
EF
100
AcDbEntity
  8
2
  6
Continuous
 62
     1
100
AcDbLine
 10
128.546413
 20
194.340405
 30
0.0
 11
288.546413
 21
194.340405
 31
0.0
  0
LINE
  5
F0
100
AcDbEntity
  8
2
  6
Continuous
 62
     1
100
AcDbLine
 10
128.546413
 20
192.840404
 30
0.0
 11
288.546413
 21
192.840404
 31
0.0
  0
LINE
  5
F1
100
AcDbEntity
  8
2
  6
Continuous
 62
     1
100
AcDbLine
 10
128.546413
 20
189.840409
 30
0.0
 11
288.546413
 21
189.840409
 31
0.0
  0
LINE
  5
F2
100
AcDbEntity
  8
2
  6
Continuous
 62
     1
100
AcDbLine
 10
481.04642
 20
216.640405
 30
0.0
 11
481.04642
 21
196.640401
 31
0.0
  0
LINE
  5
F3
100
AcDbEntity
  8
2
  6
CENTER
 62
     1
100
AcDbLine
 10
461.046422
 20
183.840402
 30
0.0
 11
461.046422
 21
232.640406
 31
0.0
  0
LINE
  5
F4
100
AcDbEntity
  8
2
  6
CENTER
 62
     1
100
AcDbLine
 10
461.046422
 20
183.840402
 30
0.0
 11
461.046422
 21
232.640406
 31
0.0
  0
LINE
  5
F5
100
AcDbEntity
  8
2
  6
Continuous
 62
     1
100
AcDbLine
 10
425.446418
 20
215.940406
 30
0.0
 11
436.646419
 21
230.140403
 31
0.0
  0
ARC
  5
F6
100
AcDbEntity
  8
2
  6
Continuous
 62
     1
100
AcDbCircle
 10
433.046412
 20
232.640406
 30
0.0
 40
4.500001
100
AcDbArc
 50
-32.280863
 51
35.098974
  0
ARC
  5
F7
100
AcDbEntity
  8
2
  6
Continuous
 62
     1
100
AcDbCircle
 10
429.846416
 20
248.640406
 30
0.0
 40
3.000001
100
AcDbArc
 50
-89.977713
 51
89.98833
  0
LINE
  5
F8
100
AcDbEntity
  8
2
  6
Continuous
 62
     1
100
AcDbLine
 10
428.346416
 20
245.640405
 30
0.0
 11
436.646419
 21
235.140403
 31
0.0
  0
LINE
  5
F9
100
AcDbEntity
  8
2
  6
Continuous
 62
     1
100
AcDbLine
 10
436.646419
 20
262.140404
 30
0.0
 11
428.346416
 21
251.640407
 31
0.0
  0
ARC
  5
FA
100
AcDbEntity
  8
2
  6
Continuous
 62
     1
100
AcDbCircle
 10
433.046412
 20
264.640401
 30
0.0
 40
4.500001
100
AcDbArc
 50
-32.280863
 51
35.098974
  0
LINE
  5
FB
100
AcDbEntity
  8
2
  6
Continuous
 62
     1
100
AcDbLine
 10
428.346416
 20
277.640407
 30
0.0
 11
436.646419
 21
267.140404
 31
0.0
  0
LINE
  5
FC
100
AcDbEntity
  8
2
  6
Continuous
 62
     1
100
AcDbLine
 10
436.646419
 20
262.140404
 30
0.0
 11
428.346416
 21
251.640407
 31
0.0
  0
LINE
  5
FD
100
AcDbEntity
  8
2
  6
Continuous
 62
     1
100
AcDbLine
 10
432.846417
 20
264.640401
 30
0.0
 11
288.546413
 21
264.640401
 31
0.0
  0
LINE
  5
FE
100
AcDbEntity
  8
2
  6
Continuous
 62
     1
100
AcDbLine
 10
429.846416
 20
251.640407
 30
0.0
 11
288.546413
 21
251.640407
 31
0.0
  0
LINE
  5
FF
100
AcDbEntity
  8
2
  6
CENTER
 62
     1
100
AcDbLine
 10
436.046418
 20
248.640406
 30
0.0
 11
288.546413
 21
248.640406
 31
0.0
  0
LINE
  5
100
100
AcDbEntity
  8
2
  6
Continuous
 62
     1
100
AcDbLine
 10
429.846416
 20
245.640405
 30
0.0
 11
288.546413
 21
245.640405
 31
0.0
  0
LINE
  5
101
100
AcDbEntity
  8
2
  6
Continuous
 62
     1
100
AcDbLine
 10
432.846417
 20
232.640406
 30
0.0
 11
288.546413
 21
232.640406
 31
0.0
  0
LINE
  5
102
100
AcDbEntity
  8
2
  6
Continuous
 62
     1
100
AcDbLine
 10
288.546413
 20
216.640405
 30
0.0
 11
481.04642
 21
216.640405
 31
0.0
  0
LINE
  5
103
100
AcDbEntity
  8
2
  6
Continuous
 62
     1
100
AcDbLine
 10
448.546413
 20
196.640401
 30
0.0
 11
448.546413
 21
189.840409
 31
0.0
  0
LINE
  5
104
100
AcDbEntity
  8
2
  6
Continuous
 62
     1
100
AcDbLine
 10
481.04642
 20
196.640401
 30
0.0
 11
288.546413
 21
196.640401
 31
0.0
  0
LINE
  5
105
100
AcDbEntity
  8
2
  6
Continuous
 62
     1
100
AcDbLine
 10
448.546413
 20
194.340405
 30
0.0
 11
288.546413
 21
194.340405
 31
0.0
  0
LINE
  5
106
100
AcDbEntity
  8
2
  6
Continuous
 62
     1
100
AcDbLine
 10
448.546413
 20
192.840404
 30
0.0
 11
288.546413
 21
192.840404
 31
0.0
  0
LINE
  5
107
100
AcDbEntity
  8
2
  6
Continuous
 62
     1
100
AcDbLine
 10
448.546413
 20
189.840409
 30
0.0
 11
288.546413
 21
189.840409
 31
0.0
  0
LINE
  5
108
100
AcDbEntity
  8
2
  6
Continuous
 62
     1
100
AcDbLine
 10
543.54642
 20
216.640405
 30
0.0
 11
543.54642
 21
196.640401
 31
0.0
  0
LINE
  5
109
100
AcDbEntity
  8
2
  6
CENTER
 62
     1
100
AcDbLine
 10
563.546418
 20
183.840402
 30
0.0
 11
563.546418
 21
232.640406
 31
0.0
  0
LINE
  5
10A
100
AcDbEntity
  8
2
  6
CENTER
 62
     1
100
AcDbLine
 10
563.546418
 20
183.840402
 30
0.0
 11
563.546418
 21
232.640406
 31
0.0
  0
LINE
  5
10B
100
AcDbEntity
  8
2
  6
Continuous
 62
     1
100
AcDbLine
 10
599.146423
 20
215.940406
 30
0.0
 11
587.946421
 21
230.140403
 31
0.0
  0
ARC
  5
10C
100
AcDbEntity
  8
2
  6
Continuous
 62
     1
100
AcDbCircle
 10
591.546429
 20
232.640406
 30
0.0
 40
4.500001
100
AcDbArc
 50
144.901026
 51
-147.719137
  0
ARC
  5
10D
100
AcDbEntity
  8
2
  6
Continuous
 62
     1
100
AcDbCircle
 10
594.746424
 20
248.640406
 30
0.0
 40
3.000001
100
AcDbArc
 50
90.01167
 51
-90.022287
  0
LINE
  5
10E
100
AcDbEntity
  8
2
  6
Continuous
 62
     1
100
AcDbLine
 10
596.246425
 20
245.640405
 30
0.0
 11
587.946421
 21
235.140403
 31
0.0
  0
LINE
  5
10F
100
AcDbEntity
  8
2
  6
Continuous
 62
     1
100
AcDbLine
 10
587.946421
 20
262.140404
 30
0.0
 11
596.246425
 21
251.640407
 31
0.0
  0
ARC
  5
110
100
AcDbEntity
  8
2
  6
Continuous
 62
     1
100
AcDbCircle
 10
591.546429
 20
264.640401
 30
0.0
 40
4.500001
100
AcDbArc
 50
144.901026
 51
-147.719137
  0
LINE
  5
111
100
AcDbEntity
  8
2
  6
Continuous
 62
     1
100
AcDbLine
 10
596.246425
 20
277.640407
 30
0.0
 11
587.946421
 21
267.140404
 31
0.0
  0
LINE
  5
112
100
AcDbEntity
  8
2
  6
Continuous
 62
     1
100
AcDbLine
 10
587.946421
 20
262.140404
 30
0.0
 11
596.246425
 21
251.640407
 31
0.0
  0
LINE
  5
113
100
AcDbEntity
  8
2
  6
Continuous
 62
     1
100
AcDbLine
 10
591.746424
 20
264.640401
 30
0.0
 11
736.046428
 21
264.640401
 31
0.0
  0
LINE
  5
114
100
AcDbEntity
  8
2
  6
Continuous
 62
     1
100
AcDbLine
 10
594.746424
 20
251.640407
 30
0.0
 11
736.046428
 21
251.640407
 31
0.0
  0
LINE
  5
115
100
AcDbEntity
  8
2
  6
CENTER
 62
     1
100
AcDbLine
 10
588.546422
 20
248.640406
 30
0.0
 11
736.046428
 21
248.640406
 31
0.0
  0
LINE
  5
116
100
AcDbEntity
  8
2
  6
Continuous
 62
     1
100
AcDbLine
 10
594.746424
 20
245.640405
 30
0.0
 11
736.046428
 21
245.640405
 31
0.0
  0
LINE
  5
117
100
AcDbEntity
  8
2
  6
Continuous
 62
     1
100
AcDbLine
 10
591.746424
 20
232.640406
 30
0.0
 11
736.046428
 21
232.640406
 31
0.0
  0
LINE
  5
118
100
AcDbEntity
  8
2
  6
Continuous
 62
     1
100
AcDbLine
 10
736.046428
 20
216.640405
 30
0.0
 11
543.54642
 21
216.640405
 31
0.0
  0
LINE
  5
119
100
AcDbEntity
  8
2
  6
Continuous
 62
     1
100
AcDbLine
 10
576.046428
 20
196.640401
 30
0.0
 11
576.046428
 21
189.840409
 31
0.0
  0
LINE
  5
11A
100
AcDbEntity
  8
2
  6
Continuous
 62
     1
100
AcDbLine
 10
543.54642
 20
196.640401
 30
0.0
 11
736.046428
 21
196.640401
 31
0.0
  0
LINE
  5
11B
100
AcDbEntity
  8
2
  6
Continuous
 62
     1
100
AcDbLine
 10
576.046428
 20
194.340405
 30
0.0
 11
736.046428
 21
194.340405
 31
0.0
  0
LINE
  5
11C
100
AcDbEntity
  8
2
  6
Continuous
 62
     1
100
AcDbLine
 10
576.046428
 20
192.840404
 30
0.0
 11
736.046428
 21
192.840404
 31
0.0
  0
LINE
  5
11D
100
AcDbEntity
  8
2
  6
Continuous
 62
     1
100
AcDbLine
 10
576.046428
 20
189.840409
 30
0.0
 11
736.046428
 21
189.840409
 31
0.0
  0
LINE
  5
11E
100
AcDbEntity
  8
2
  6
Continuous
 62
     1
100
AcDbLine
 10
928.546435
 20
216.640405
 30
0.0
 11
928.546435
 21
196.640401
 31
0.0
  0
LINE
  5
11F
100
AcDbEntity
  8
2
  6
CENTER
 62
     1
100
AcDbLine
 10
908.546437
 20
183.840402
 30
0.0
 11
908.546437
 21
232.640406
 31
0.0
  0
LINE
  5
120
100
AcDbEntity
  8
2
  6
CENTER
 62
     1
100
AcDbLine
 10
908.546437
 20
183.840402
 30
0.0
 11
908.546437
 21
232.640406
 31
0.0
  0
LINE
  5
121
100
AcDbEntity
  8
2
  6
Continuous
 62
     1
100
AcDbLine
 10
872.946432
 20
215.940406
 30
0.0
 11
884.146434
 21
230.140403
 31
0.0
  0
ARC
  5
122
100
AcDbEntity
  8
2
  6
Continuous
 62
     1
100
AcDbCircle
 10
880.546426
 20
232.640406
 30
0.0
 40
4.500001
100
AcDbArc
 50
-32.280863
 51
35.098974
  0
ARC
  5
123
100
AcDbEntity
  8
2
  6
Continuous
 62
     1
100
AcDbCircle
 10
877.346431
 20
248.640406
 30
0.0
 40
3.000001
100
AcDbArc
 50
-89.977713
 51
89.98833
  0
LINE
  5
124
100
AcDbEntity
  8
2
  6
Continuous
 62
     1
100
AcDbLine
 10
875.84643
 20
245.640405
 30
0.0
 11
884.146434
 21
235.140403
 31
0.0
  0
LINE
  5
125
100
AcDbEntity
  8
2
  6
Continuous
 62
     1
100
AcDbLine
 10
884.146434
 20
262.140404
 30
0.0
 11
875.84643
 21
251.640407
 31
0.0
  0
ARC
  5
126
100
AcDbEntity
  8
2
  6
Continuous
 62
     1
100
AcDbCircle
 10
880.546426
 20
264.640401
 30
0.0
 40
4.500001
100
AcDbArc
 50
-32.280863
 51
35.098974
  0
LINE
  5
127
100
AcDbEntity
  8
2
  6
Continuous
 62
     1
100
AcDbLine
 10
875.84643
 20
277.640407
 30
0.0
 11
884.146434
 21
267.140404
 31
0.0
  0
LINE
  5
128
100
AcDbEntity
  8
2
  6
Continuous
 62
     1
100
AcDbLine
 10
884.146434
 20
262.140404
 30
0.0
 11
875.84643
 21
251.640407
 31
0.0
  0
LINE
  5
129
100
AcDbEntity
  8
2
  6
Continuous
 62
     1
100
AcDbLine
 10
880.346431
 20
264.640401
 30
0.0
 11
736.046428
 21
264.640401
 31
0.0
  0
LINE
  5
12A
100
AcDbEntity
  8
2
  6
Continuous
 62
     1
100
AcDbLine
 10
877.346431
 20
251.640407
 30
0.0
 11
736.046428
 21
251.640407
 31
0.0
  0
LINE
  5
12B
100
AcDbEntity
  8
2
  6
CENTER
 62
     1
100
AcDbLine
 10
883.546433
 20
248.640406
 30
0.0
 11
736.046428
 21
248.640406
 31
0.0
  0
LINE
  5
12C
100
AcDbEntity
  8
2
  6
Continuous
 62
     1
100
AcDbLine
 10
877.346431
 20
245.640405
 30
0.0
 11
736.046428
 21
245.640405
 31
0.0
  0
LINE
  5
12D
100
AcDbEntity
  8
2
  6
Continuous
 62
     1
100
AcDbLine
 10
880.346431
 20
232.640406
 30
0.0
 11
736.046428
 21
232.640406
 31
0.0
  0
LINE
  5
12E
100
AcDbEntity
  8
2
  6
Continuous
 62
     1
100
AcDbLine
 10
736.046428
 20
216.640405
 30
0.0
 11
928.546435
 21
216.640405
 31
0.0
  0
LINE
  5
12F
100
AcDbEntity
  8
2
  6
Continuous
 62
     1
100
AcDbLine
 10
896.046428
 20
196.640401
 30
0.0
 11
896.046428
 21
189.840409
 31
0.0
  0
LINE
  5
130
100
AcDbEntity
  8
2
  6
Continuous
 62
     1
100
AcDbLine
 10
928.546435
 20
196.640401
 30
0.0
 11
736.046428
 21
196.640401
 31
0.0
  0
LINE
  5
131
100
AcDbEntity
  8
2
  6
Continuous
 62
     1
100
AcDbLine
 10
896.046428
 20
194.340405
 30
0.0
 11
736.046428
 21
194.340405
 31
0.0
  0
LINE
  5
132
100
AcDbEntity
  8
2
  6
Continuous
 62
     1
100
AcDbLine
 10
896.046428
 20
192.840404
 30
0.0
 11
736.046428
 21
192.840404
 31
0.0
  0
LINE
  5
133
100
AcDbEntity
  8
2
  6
Continuous
 62
     1
100
AcDbLine
 10
896.046428
 20
189.840409
 30
0.0
 11
736.046428
 21
189.840409
 31
0.0
  0
LINE
  5
134
100
AcDbEntity
  8
2
  6
Continuous
 62
     1
100
AcDbLine
 10
680.148248
 20
431.801217
 30
0.0
 11
680.048245
 21
431.801217
 31
0.0
  0
LINE
  5
135
100
AcDbEntity
  8
2
  6
Continuous
 62
     1
100
AcDbLine
 10
552.146422
 20
624.801215
 30
0.0
 11
552.046419
 21
624.801215
 31
0.0
  0
LINE
  5
136
100
AcDbEntity
  8
2
  6
Continuous
 62
     1
100
AcDbLine
 10
991.046435
 20
216.640405
 30
0.0
 11
991.046435
 21
196.640401
 31
0.0
  0
LINE
  5
137
100
AcDbEntity
  8
2
  6
CENTER
 62
     1
100
AcDbLine
 10
1011.046433
 20
183.840402
 30
0.0
 11
1011.046433
 21
232.640406
 31
0.0
  0
LINE
  5
138
100
AcDbEntity
  8
2
  6
CENTER
 62
     1
100
AcDbLine
 10
1011.046433
 20
183.840402
 30
0.0
 11
1011.046433
 21
232.640406
 31
0.0
  0
LINE
  5
139
100
AcDbEntity
  8
2
  6
Continuous
 62
     1
100
AcDbLine
 10
1046.646437
 20
215.940406
 30
0.0
 11
1035.446436
 21
230.140403
 31
0.0
  0
ARC
  5
13A
100
AcDbEntity
  8
2
  6
Continuous
 62
     1
100
AcDbCircle
 10
1039.046443
 20
232.640406
 30
0.0
 40
4.500001
100
AcDbArc
 50
144.901026
 51
-147.719137
  0
ARC
  5
13B
100
AcDbEntity
  8
2
  6
Continuous
 62
     1
100
AcDbCircle
 10
1042.246439
 20
248.640406
 30
0.0
 40
3.000001
100
AcDbArc
 50
90.01167
 51
-90.022287
  0
LINE
  5
13C
100
AcDbEntity
  8
2
  6
Continuous
 62
     1
100
AcDbLine
 10
1043.746439
 20
245.640405
 30
0.0
 11
1035.446436
 21
235.140403
 31
0.0
  0
LINE
  5
13D
100
AcDbEntity
  8
2
  6
Continuous
 62
     1
100
AcDbLine
 10
1035.446436
 20
262.140404
 30
0.0
 11
1043.746439
 21
251.640407
 31
0.0
  0
ARC
  5
13E
100
AcDbEntity
  8
2
  6
Continuous
 62
     1
100
AcDbCircle
 10
1039.046443
 20
264.640401
 30
0.0
 40
4.500001
100
AcDbArc
 50
144.901026
 51
-147.719137
  0
LINE
  5
13F
100
AcDbEntity
  8
2
  6
Continuous
 62
     1
100
AcDbLine
 10
1043.746439
 20
277.640407
 30
0.0
 11
1035.446436
 21
267.140404
 31
0.0
  0
LINE
  5
140
100
AcDbEntity
  8
2
  6
Continuous
 62
     1
100
AcDbLine
 10
1035.446436
 20
262.140404
 30
0.0
 11
1043.746439
 21
251.640407
 31
0.0
  0
LINE
  5
141
100
AcDbEntity
  8
2
  6
Continuous
 62
     1
100
AcDbLine
 10
1039.246438
 20
264.640401
 30
0.0
 11
1183.546442
 21
264.640401
 31
0.0
  0
LINE
  5
142
100
AcDbEntity
  8
2
  6
Continuous
 62
     1
100
AcDbLine
 10
1042.246439
 20
251.640407
 30
0.0
 11
1183.546442
 21
251.640407
 31
0.0
  0
LINE
  5
143
100
AcDbEntity
  8
2
  6
CENTER
 62
     1
100
AcDbLine
 10
1036.046437
 20
248.640406
 30
0.0
 11
1183.546442
 21
248.640406
 31
0.0
  0
LINE
  5
144
100
AcDbEntity
  8
2
  6
Continuous
 62
     1
100
AcDbLine
 10
1042.246439
 20
245.640405
 30
0.0
 11
1183.546442
 21
245.640405
 31
0.0
  0
LINE
  5
145
100
AcDbEntity
  8
2
  6
Continuous
 62
     1
100
AcDbLine
 10
1039.246438
 20
232.640406
 30
0.0
 11
1183.546442
 21
232.640406
 31
0.0
  0
LINE
  5
146
100
AcDbEntity
  8
2
  6
Continuous
 62
     1
100
AcDbLine
 10
1183.546442
 20
216.640405
 30
0.0
 11
991.046435
 21
216.640405
 31
0.0
  0
LINE
  5
147
100
AcDbEntity
  8
2
  6
Continuous
 62
     1
100
AcDbLine
 10
1023.546442
 20
196.640401
 30
0.0
 11
1023.546442
 21
189.840409
 31
0.0
  0
LINE
  5
148
100
AcDbEntity
  8
2
  6
Continuous
 62
     1
100
AcDbLine
 10
991.046435
 20
196.640401
 30
0.0
 11
1183.546442
 21
196.640401
 31
0.0
  0
LINE
  5
149
100
AcDbEntity
  8
2
  6
Continuous
 62
     1
100
AcDbLine
 10
1023.546442
 20
194.340405
 30
0.0
 11
1183.546442
 21
194.340405
 31
0.0
  0
LINE
  5
14A
100
AcDbEntity
  8
2
  6
Continuous
 62
     1
100
AcDbLine
 10
1023.546442
 20
192.840404
 30
0.0
 11
1183.546442
 21
192.840404
 31
0.0
  0
LINE
  5
14B
100
AcDbEntity
  8
2
  6
Continuous
 62
     1
100
AcDbLine
 10
1023.546442
 20
189.840409
 30
0.0
 11
1183.546442
 21
189.840409
 31
0.0
  0
LINE
  5
14C
100
AcDbEntity
  8
2
  6
Continuous
 62
     1
100
AcDbLine
 10
1376.046449
 20
216.640405
 30
0.0
 11
1376.046449
 21
196.640401
 31
0.0
  0
LINE
  5
14D
100
AcDbEntity
  8
2
  6
CENTER
 62
     1
100
AcDbLine
 10
1356.046451
 20
183.840402
 30
0.0
 11
1356.046451
 21
232.640406
 31
0.0
  0
LINE
  5
14E
100
AcDbEntity
  8
2
  6
CENTER
 62
     1
100
AcDbLine
 10
1356.046451
 20
183.840402
 30
0.0
 11
1356.046451
 21
232.640406
 31
0.0
  0
LINE
  5
14F
100
AcDbEntity
  8
2
  6
Continuous
 62
     1
100
AcDbLine
 10
1320.446447
 20
215.940406
 30
0.0
 11
1331.646448
 21
230.140403
 31
0.0
  0
ARC
  5
150
100
AcDbEntity
  8
2
  6
Continuous
 62
     1
100
AcDbCircle
 10
1328.046441
 20
232.640406
 30
0.0
 40
4.500001
100
AcDbArc
 50
-32.280863
 51
35.098974
  0
ARC
  5
151
100
AcDbEntity
  8
2
  6
Continuous
 62
     1
100
AcDbCircle
 10
1324.846445
 20
248.640406
 30
0.0
 40
3.000001
100
AcDbArc
 50
-89.977713
 51
89.98833
  0
LINE
  5
152
100
AcDbEntity
  8
2
  6
Continuous
 62
     1
100
AcDbLine
 10
1323.346445
 20
245.640405
 30
0.0
 11
1331.646448
 21
235.140403
 31
0.0
  0
LINE
  5
153
100
AcDbEntity
  8
2
  6
Continuous
 62
     1
100
AcDbLine
 10
1331.646448
 20
262.140404
 30
0.0
 11
1323.346445
 21
251.640407
 31
0.0
  0
ARC
  5
154
100
AcDbEntity
  8
2
  6
Continuous
 62
     1
100
AcDbCircle
 10
1328.046441
 20
264.640401
 30
0.0
 40
4.500001
100
AcDbArc
 50
-32.280863
 51
35.098974
  0
LINE
  5
155
100
AcDbEntity
  8
2
  6
Continuous
 62
     1
100
AcDbLine
 10
1323.346445
 20
277.640407
 30
0.0
 11
1331.646448
 21
267.140404
 31
0.0
  0
LINE
  5
156
100
AcDbEntity
  8
2
  6
Continuous
 62
     1
100
AcDbLine
 10
1331.646448
 20
262.140404
 30
0.0
 11
1323.346445
 21
251.640407
 31
0.0
  0
LINE
  5
157
100
AcDbEntity
  8
2
  6
Continuous
 62
     1
100
AcDbLine
 10
1327.846446
 20
264.640401
 30
0.0
 11
1183.546442
 21
264.640401
 31
0.0
  0
LINE
  5
158
100
AcDbEntity
  8
2
  6
Continuous
 62
     1
100
AcDbLine
 10
1324.846445
 20
251.640407
 30
0.0
 11
1183.546442
 21
251.640407
 31
0.0
  0
LINE
  5
159
100
AcDbEntity
  8
2
  6
CENTER
 62
     1
100
AcDbLine
 10
1331.046447
 20
248.640406
 30
0.0
 11
1183.546442
 21
248.640406
 31
0.0
  0
LINE
  5
15A
100
AcDbEntity
  8
2
  6
Continuous
 62
     1
100
AcDbLine
 10
1324.846445
 20
245.640405
 30
0.0
 11
1183.546442
 21
245.640405
 31
0.0
  0
LINE
  5
15B
100
AcDbEntity
  8
2
  6
Continuous
 62
     1
100
AcDbLine
 10
1327.846446
 20
232.640406
 30
0.0
 11
1183.546442
 21
232.640406
 31
0.0
  0
LINE
  5
15C
100
AcDbEntity
  8
2
  6
Continuous
 62
     1
100
AcDbLine
 10
1183.546442
 20
216.640405
 30
0.0
 11
1376.046449
 21
216.640405
 31
0.0
  0
LINE
  5
15D
100
AcDbEntity
  8
2
  6
Continuous
 62
     1
100
AcDbLine
 10
1343.546442
 20
196.640401
 30
0.0
 11
1343.546442
 21
189.840409
 31
0.0
  0
LINE
  5
15E
100
AcDbEntity
  8
2
  6
Continuous
 62
     1
100
AcDbLine
 10
1376.046449
 20
196.640401
 30
0.0
 11
1183.546442
 21
196.640401
 31
0.0
  0
LINE
  5
15F
100
AcDbEntity
  8
2
  6
Continuous
 62
     1
100
AcDbLine
 10
1343.546442
 20
194.340405
 30
0.0
 11
1183.546442
 21
194.340405
 31
0.0
  0
LINE
  5
160
100
AcDbEntity
  8
2
  6
Continuous
 62
     1
100
AcDbLine
 10
1343.546442
 20
192.840404
 30
0.0
 11
1183.546442
 21
192.840404
 31
0.0
  0
LINE
  5
161
100
AcDbEntity
  8
2
  6
Continuous
 62
     1
100
AcDbLine
 10
1343.546442
 20
189.840409
 30
0.0
 11
1183.546442
 21
189.840409
 31
0.0
  0
LINE
  5
162
100
AcDbEntity
  8
2
  6
Continuous
 62
     1
100
AcDbLine
 10
1438.546449
 20
216.640405
 30
0.0
 11
1438.546449
 21
196.640401
 31
0.0
  0
LINE
  5
163
100
AcDbEntity
  8
2
  6
CENTER
 62
     1
100
AcDbLine
 10
1458.546447
 20
183.840402
 30
0.0
 11
1458.546447
 21
232.640406
 31
0.0
  0
LINE
  5
164
100
AcDbEntity
  8
2
  6
CENTER
 62
     1
100
AcDbLine
 10
1458.546447
 20
183.840402
 30
0.0
 11
1458.546447
 21
232.640406
 31
0.0
  0
LINE
  5
165
100
AcDbEntity
  8
2
  6
Continuous
 62
     1
100
AcDbLine
 10
1494.146452
 20
215.940406
 30
0.0
 11
1482.94645
 21
230.140403
 31
0.0
  0
ARC
  5
166
100
AcDbEntity
  8
2
  6
Continuous
 62
     1
100
AcDbCircle
 10
1486.546458
 20
232.640406
 30
0.0
 40
4.500001
100
AcDbArc
 50
144.901026
 51
-147.719137
  0
ARC
  5
167
100
AcDbEntity
  8
2
  6
Continuous
 62
     1
100
AcDbCircle
 10
1489.746453
 20
248.640406
 30
0.0
 40
3.000001
100
AcDbArc
 50
90.01167
 51
-90.022287
  0
LINE
  5
168
100
AcDbEntity
  8
2
  6
Continuous
 62
     1
100
AcDbLine
 10
1491.246454
 20
245.640405
 30
0.0
 11
1482.94645
 21
235.140403
 31
0.0
  0
LINE
  5
169
100
AcDbEntity
  8
2
  6
Continuous
 62
     1
100
AcDbLine
 10
1482.94645
 20
262.140404
 30
0.0
 11
1491.246454
 21
251.640407
 31
0.0
  0
ARC
  5
16A
100
AcDbEntity
  8
2
  6
Continuous
 62
     1
100
AcDbCircle
 10
1486.546458
 20
264.640401
 30
0.0
 40
4.500001
100
AcDbArc
 50
144.901026
 51
-147.719137
  0
LINE
  5
16B
100
AcDbEntity
  8
2
  6
Continuous
 62
     1
100
AcDbLine
 10
1491.246454
 20
277.640407
 30
0.0
 11
1482.94645
 21
267.140404
 31
0.0
  0
LINE
  5
16C
100
AcDbEntity
  8
2
  6
Continuous
 62
     1
100
AcDbLine
 10
1482.94645
 20
262.140404
 30
0.0
 11
1491.246454
 21
251.640407
 31
0.0
  0
LINE
  5
16D
100
AcDbEntity
  8
2
  6
Continuous
 62
     1
100
AcDbLine
 10
1486.746453
 20
264.640401
 30
0.0
 11
1631.046456
 21
264.640401
 31
0.0
  0
LINE
  5
16E
100
AcDbEntity
  8
2
  6
Continuous
 62
     1
100
AcDbLine
 10
1489.746453
 20
251.640407
 30
0.0
 11
1631.046456
 21
251.640407
 31
0.0
  0
LINE
  5
16F
100
AcDbEntity
  8
2
  6
CENTER
 62
     1
100
AcDbLine
 10
1483.546451
 20
248.640406
 30
0.0
 11
1631.046456
 21
248.640406
 31
0.0
  0
LINE
  5
170
100
AcDbEntity
  8
2
  6
Continuous
 62
     1
100
AcDbLine
 10
1489.746453
 20
245.640405
 30
0.0
 11
1631.046456
 21
245.640405
 31
0.0
  0
LINE
  5
171
100
AcDbEntity
  8
2
  6
Continuous
 62
     1
100
AcDbLine
 10
1486.746453
 20
232.640406
 30
0.0
 11
1631.046456
 21
232.640406
 31
0.0
  0
LINE
  5
172
100
AcDbEntity
  8
2
  6
Continuous
 62
     1
100
AcDbLine
 10
1631.046456
 20
216.640405
 30
0.0
 11
1438.546449
 21
216.640405
 31
0.0
  0
LINE
  5
173
100
AcDbEntity
  8
2
  6
Continuous
 62
     1
100
AcDbLine
 10
1471.046456
 20
196.640401
 30
0.0
 11
1471.046456
 21
189.840409
 31
0.0
  0
LINE
  5
174
100
AcDbEntity
  8
2
  6
Continuous
 62
     1
100
AcDbLine
 10
1438.546449
 20
196.640401
 30
0.0
 11
1631.046456
 21
196.640401
 31
0.0
  0
LINE
  5
175
100
AcDbEntity
  8
2
  6
Continuous
 62
     1
100
AcDbLine
 10
1471.046456
 20
194.340405
 30
0.0
 11
1631.046456
 21
194.340405
 31
0.0
  0
LINE
  5
176
100
AcDbEntity
  8
2
  6
Continuous
 62
     1
100
AcDbLine
 10
1471.046456
 20
192.840404
 30
0.0
 11
1631.046456
 21
192.840404
 31
0.0
  0
LINE
  5
177
100
AcDbEntity
  8
2
  6
Continuous
 62
     1
100
AcDbLine
 10
1471.046456
 20
189.840409
 30
0.0
 11
1631.046456
 21
189.840409
 31
0.0
  0
LINE
  5
178
100
AcDbEntity
  8
2
  6
Continuous
 62
     1
100
AcDbLine
 10
1823.546464
 20
216.640405
 30
0.0
 11
1823.546464
 21
196.640401
 31
0.0
  0
LINE
  5
179
100
AcDbEntity
  8
2
  6
CENTER
 62
     1
100
AcDbLine
 10
1803.546466
 20
183.840402
 30
0.0
 11
1803.546466
 21
232.640406
 31
0.0
  0
LINE
  5
17A
100
AcDbEntity
  8
2
  6
CENTER
 62
     1
100
AcDbLine
 10
1803.546466
 20
183.840402
 30
0.0
 11
1803.546466
 21
232.640406
 31
0.0
  0
LINE
  5
17B
100
AcDbEntity
  8
2
  6
Continuous
 62
     1
100
AcDbLine
 10
1767.946461
 20
215.940406
 30
0.0
 11
1779.146463
 21
230.140403
 31
0.0
  0
ARC
  5
17C
100
AcDbEntity
  8
2
  6
Continuous
 62
     1
100
AcDbCircle
 10
1775.546455
 20
232.640406
 30
0.0
 40
4.500001
100
AcDbArc
 50
-32.280863
 51
35.098974
  0
ARC
  5
17D
100
AcDbEntity
  8
2
  6
Continuous
 62
     1
100
AcDbCircle
 10
1772.346459
 20
248.640406
 30
0.0
 40
3.000001
100
AcDbArc
 50
-89.977713
 51
89.98833
  0
LINE
  5
17E
100
AcDbEntity
  8
2
  6
Continuous
 62
     1
100
AcDbLine
 10
1770.846459
 20
245.640405
 30
0.0
 11
1779.146463
 21
235.140403
 31
0.0
  0
LINE
  5
17F
100
AcDbEntity
  8
2
  6
Continuous
 62
     1
100
AcDbLine
 10
1779.146463
 20
262.140404
 30
0.0
 11
1770.846459
 21
251.640407
 31
0.0
  0
ARC
  5
180
100
AcDbEntity
  8
2
  6
Continuous
 62
     1
100
AcDbCircle
 10
1775.546455
 20
264.640401
 30
0.0
 40
4.500001
100
AcDbArc
 50
-32.280863
 51
35.098974
  0
LINE
  5
181
100
AcDbEntity
  8
2
  6
Continuous
 62
     1
100
AcDbLine
 10
1770.846459
 20
277.640407
 30
0.0
 11
1779.146463
 21
267.140404
 31
0.0
  0
LINE
  5
182
100
AcDbEntity
  8
2
  6
Continuous
 62
     1
100
AcDbLine
 10
1779.146463
 20
262.140404
 30
0.0
 11
1770.846459
 21
251.640407
 31
0.0
  0
LINE
  5
183
100
AcDbEntity
  8
2
  6
Continuous
 62
     1
100
AcDbLine
 10
1775.34646
 20
264.640401
 30
0.0
 11
1631.046456
 21
264.640401
 31
0.0
  0
LINE
  5
184
100
AcDbEntity
  8
2
  6
Continuous
 62
     1
100
AcDbLine
 10
1772.346459
 20
251.640407
 30
0.0
 11
1631.046456
 21
251.640407
 31
0.0
  0
LINE
  5
185
100
AcDbEntity
  8
2
  6
CENTER
 62
     1
100
AcDbLine
 10
1778.546462
 20
248.640406
 30
0.0
 11
1631.046456
 21
248.640406
 31
0.0
  0
LINE
  5
186
100
AcDbEntity
  8
2
  6
Continuous
 62
     1
100
AcDbLine
 10
1772.346459
 20
245.640405
 30
0.0
 11
1631.046456
 21
245.640405
 31
0.0
  0
LINE
  5
187
100
AcDbEntity
  8
2
  6
Continuous
 62
     1
100
AcDbLine
 10
1775.34646
 20
232.640406
 30
0.0
 11
1631.046456
 21
232.640406
 31
0.0
  0
LINE
  5
188
100
AcDbEntity
  8
2
  6
Continuous
 62
     1
100
AcDbLine
 10
1631.046456
 20
216.640405
 30
0.0
 11
1823.546464
 21
216.640405
 31
0.0
  0
LINE
  5
189
100
AcDbEntity
  8
2
  6
Continuous
 62
     1
100
AcDbLine
 10
1791.046456
 20
196.640401
 30
0.0
 11
1791.046456
 21
189.840409
 31
0.0
  0
LINE
  5
18A
100
AcDbEntity
  8
2
  6
Continuous
 62
     1
100
AcDbLine
 10
1823.546464
 20
196.640401
 30
0.0
 11
1631.046456
 21
196.640401
 31
0.0
  0
LINE
  5
18B
100
AcDbEntity
  8
2
  6
Continuous
 62
     1
100
AcDbLine
 10
1791.046456
 20
194.340405
 30
0.0
 11
1631.046456
 21
194.340405
 31
0.0
  0
LINE
  5
18C
100
AcDbEntity
  8
2
  6
Continuous
 62
     1
100
AcDbLine
 10
1791.046456
 20
192.840404
 30
0.0
 11
1631.046456
 21
192.840404
 31
0.0
  0
LINE
  5
18D
100
AcDbEntity
  8
2
  6
Continuous
 62
     1
100
AcDbLine
 10
1791.046456
 20
189.840409
 30
0.0
 11
1631.046456
 21
189.840409
 31
0.0
  0
LINE
  5
18E
100
AcDbEntity
  8
2
  6
Continuous
 62
     1
100
AcDbLine
 10
1886.046464
 20
216.640405
 30
0.0
 11
1886.046464
 21
196.640401
 31
0.0
  0
LINE
  5
18F
100
AcDbEntity
  8
2
  6
CENTER
 62
     1
100
AcDbLine
 10
1906.046462
 20
183.840402
 30
0.0
 11
1906.046462
 21
232.640406
 31
0.0
  0
LINE
  5
190
100
AcDbEntity
  8
2
  6
CENTER
 62
     1
100
AcDbLine
 10
1906.046462
 20
183.840402
 30
0.0
 11
1906.046462
 21
232.640406
 31
0.0
  0
LINE
  5
191
100
AcDbEntity
  8
2
  6
Continuous
 62
     1
100
AcDbLine
 10
1941.646466
 20
215.940406
 30
0.0
 11
1930.446464
 21
230.140403
 31
0.0
  0
ARC
  5
192
100
AcDbEntity
  8
2
  6
Continuous
 62
     1
100
AcDbCircle
 10
1934.046472
 20
232.640406
 30
0.0
 40
4.500001
100
AcDbArc
 50
144.901026
 51
-147.719137
  0
ARC
  5
193
100
AcDbEntity
  8
2
  6
Continuous
 62
     1
100
AcDbCircle
 10
1937.246468
 20
248.640406
 30
0.0
 40
3.000001
100
AcDbArc
 50
90.01167
 51
-90.022287
  0
LINE
  5
194
100
AcDbEntity
  8
2
  6
Continuous
 62
     1
100
AcDbLine
 10
1938.746468
 20
245.640405
 30
0.0
 11
1930.446464
 21
235.140403
 31
0.0
  0
LINE
  5
195
100
AcDbEntity
  8
2
  6
Continuous
 62
     1
100
AcDbLine
 10
1930.446464
 20
262.140404
 30
0.0
 11
1938.746468
 21
251.640407
 31
0.0
  0
ARC
  5
196
100
AcDbEntity
  8
2
  6
Continuous
 62
     1
100
AcDbCircle
 10
1934.046472
 20
264.640401
 30
0.0
 40
4.500001
100
AcDbArc
 50
144.901026
 51
-147.719137
  0
LINE
  5
197
100
AcDbEntity
  8
2
  6
Continuous
 62
     1
100
AcDbLine
 10
1938.746468
 20
277.640407
 30
0.0
 11
1930.446464
 21
267.140404
 31
0.0
  0
LINE
  5
198
100
AcDbEntity
  8
2
  6
Continuous
 62
     1
100
AcDbLine
 10
1930.446464
 20
262.140404
 30
0.0
 11
1938.746468
 21
251.640407
 31
0.0
  0
LINE
  5
199
100
AcDbEntity
  8
2
  6
Continuous
 62
     1
100
AcDbLine
 10
1934.246467
 20
264.640401
 30
0.0
 11
2078.546471
 21
264.640401
 31
0.0
  0
LINE
  5
19A
100
AcDbEntity
  8
2
  6
Continuous
 62
     1
100
AcDbLine
 10
1937.246468
 20
251.640407
 30
0.0
 11
2078.546471
 21
251.640407
 31
0.0
  0
LINE
  5
19B
100
AcDbEntity
  8
2
  6
CENTER
 62
     1
100
AcDbLine
 10
1931.046466
 20
248.640406
 30
0.0
 11
2078.546471
 21
248.640406
 31
0.0
  0
LINE
  5
19C
100
AcDbEntity
  8
2
  6
Continuous
 62
     1
100
AcDbLine
 10
1937.246468
 20
245.640405
 30
0.0
 11
2078.546471
 21
245.640405
 31
0.0
  0
LINE
  5
19D
100
AcDbEntity
  8
2
  6
Continuous
 62
     1
100
AcDbLine
 10
1934.246467
 20
232.640406
 30
0.0
 11
2078.546471
 21
232.640406
 31
0.0
  0
LINE
  5
19E
100
AcDbEntity
  8
2
  6
Continuous
 62
     1
100
AcDbLine
 10
2078.546471
 20
216.640405
 30
0.0
 11
1886.046464
 21
216.640405
 31
0.0
  0
LINE
  5
19F
100
AcDbEntity
  8
2
  6
Continuous
 62
     1
100
AcDbLine
 10
1918.546471
 20
196.640401
 30
0.0
 11
1918.546471
 21
189.840409
 31
0.0
  0
LINE
  5
1A0
100
AcDbEntity
  8
2
  6
Continuous
 62
     1
100
AcDbLine
 10
1886.046464
 20
196.640401
 30
0.0
 11
2078.546471
 21
196.640401
 31
0.0
  0
LINE
  5
1A1
100
AcDbEntity
  8
2
  6
Continuous
 62
     1
100
AcDbLine
 10
1918.546471
 20
194.340405
 30
0.0
 11
2078.546471
 21
194.340405
 31
0.0
  0
LINE
  5
1A2
100
AcDbEntity
  8
2
  6
Continuous
 62
     1
100
AcDbLine
 10
1918.546471
 20
192.840404
 30
0.0
 11
2078.546471
 21
192.840404
 31
0.0
  0
LINE
  5
1A3
100
AcDbEntity
  8
2
  6
Continuous
 62
     1
100
AcDbLine
 10
1918.546471
 20
189.840409
 30
0.0
 11
2078.546471
 21
189.840409
 31
0.0
  0
LINE
  5
1A4
100
AcDbEntity
  8
2
  6
Continuous
 62
     1
100
AcDbLine
 10
2271.046478
 20
216.640405
 30
0.0
 11
2271.046478
 21
196.640401
 31
0.0
  0
LINE
  5
1A5
100
AcDbEntity
  8
2
  6
CENTER
 62
     1
100
AcDbLine
 10
2251.04648
 20
183.840402
 30
0.0
 11
2251.04648
 21
232.640406
 31
0.0
  0
LINE
  5
1A6
100
AcDbEntity
  8
2
  6
CENTER
 62
     1
100
AcDbLine
 10
2251.04648
 20
183.840402
 30
0.0
 11
2251.04648
 21
232.640406
 31
0.0
  0
LINE
  5
1A7
100
AcDbEntity
  8
2
  6
Continuous
 62
     1
100
AcDbLine
 10
2215.446476
 20
215.940406
 30
0.0
 11
2226.646477
 21
230.140403
 31
0.0
  0
ARC
  5
1A8
100
AcDbEntity
  8
2
  6
Continuous
 62
     1
100
AcDbCircle
 10
2223.04647
 20
232.640406
 30
0.0
 40
4.500001
100
AcDbArc
 50
-32.280863
 51
35.098974
  0
ARC
  5
1A9
100
AcDbEntity
  8
2
  6
Continuous
 62
     1
100
AcDbCircle
 10
2219.846474
 20
248.640406
 30
0.0
 40
3.000001
100
AcDbArc
 50
-89.977713
 51
89.98833
  0
LINE
  5
1AA
100
AcDbEntity
  8
2
  6
Continuous
 62
     1
100
AcDbLine
 10
2218.346473
 20
245.640405
 30
0.0
 11
2226.646477
 21
235.140403
 31
0.0
  0
LINE
  5
1AB
100
AcDbEntity
  8
2
  6
Continuous
 62
     1
100
AcDbLine
 10
2226.646477
 20
262.140404
 30
0.0
 11
2218.346473
 21
251.640407
 31
0.0
  0
ARC
  5
1AC
100
AcDbEntity
  8
2
  6
Continuous
 62
     1
100
AcDbCircle
 10
2223.04647
 20
264.640401
 30
0.0
 40
4.500001
100
AcDbArc
 50
-32.280863
 51
35.098974
  0
LINE
  5
1AD
100
AcDbEntity
  8
2
  6
Continuous
 62
     1
100
AcDbLine
 10
2218.346473
 20
277.640407
 30
0.0
 11
2226.646477
 21
267.140404
 31
0.0
  0
LINE
  5
1AE
100
AcDbEntity
  8
2
  6
Continuous
 62
     1
100
AcDbLine
 10
2226.646477
 20
262.140404
 30
0.0
 11
2218.346473
 21
251.640407
 31
0.0
  0
LINE
  5
1AF
100
AcDbEntity
  8
2
  6
Continuous
 62
     1
100
AcDbLine
 10
2222.846475
 20
264.640401
 30
0.0
 11
2078.546471
 21
264.640401
 31
0.0
  0
LINE
  5
1B0
100
AcDbEntity
  8
2
  6
Continuous
 62
     1
100
AcDbLine
 10
2219.846474
 20
251.640407
 30
0.0
 11
2078.546471
 21
251.640407
 31
0.0
  0
LINE
  5
1B1
100
AcDbEntity
  8
2
  6
CENTER
 62
     1
100
AcDbLine
 10
2226.046476
 20
248.640406
 30
0.0
 11
2078.546471
 21
248.640406
 31
0.0
  0
LINE
  5
1B2
100
AcDbEntity
  8
2
  6
Continuous
 62
     1
100
AcDbLine
 10
2219.846474
 20
245.640405
 30
0.0
 11
2078.546471
 21
245.640405
 31
0.0
  0
LINE
  5
1B3
100
AcDbEntity
  8
2
  6
Continuous
 62
     1
100
AcDbLine
 10
2222.846475
 20
232.640406
 30
0.0
 11
2078.546471
 21
232.640406
 31
0.0
  0
LINE
  5
1B4
100
AcDbEntity
  8
2
  6
Continuous
 62
     1
100
AcDbLine
 10
2078.546471
 20
216.640405
 30
0.0
 11
2271.046478
 21
216.640405
 31
0.0
  0
LINE
  5
1B5
100
AcDbEntity
  8
2
  6
Continuous
 62
     1
100
AcDbLine
 10
2238.546471
 20
196.640401
 30
0.0
 11
2238.546471
 21
189.840409
 31
0.0
  0
LINE
  5
1B6
100
AcDbEntity
  8
2
  6
Continuous
 62
     1
100
AcDbLine
 10
2271.046478
 20
196.640401
 30
0.0
 11
2078.546471
 21
196.640401
 31
0.0
  0
LINE
  5
1B7
100
AcDbEntity
  8
2
  6
Continuous
 62
     1
100
AcDbLine
 10
2238.546471
 20
194.340405
 30
0.0
 11
2078.546471
 21
194.340405
 31
0.0
  0
LINE
  5
1B8
100
AcDbEntity
  8
2
  6
Continuous
 62
     1
100
AcDbLine
 10
2238.546471
 20
192.840404
 30
0.0
 11
2078.546471
 21
192.840404
 31
0.0
  0
LINE
  5
1B9
100
AcDbEntity
  8
2
  6
Continuous
 62
     1
100
AcDbLine
 10
2238.546471
 20
189.840409
 30
0.0
 11
2078.546471
 21
189.840409
 31
0.0
  0
LINE
  5
1BA
100
AcDbEntity
  8
2
  6
Continuous
 62
     1
100
AcDbLine
 10
2333.546478
 20
216.640405
 30
0.0
 11
2333.546478
 21
196.640401
 31
0.0
  0
LINE
  5
1BB
100
AcDbEntity
  8
2
  6
CENTER
 62
     1
100
AcDbLine
 10
2353.546476
 20
183.840402
 30
0.0
 11
2353.546476
 21
232.640406
 31
0.0
  0
LINE
  5
1BC
100
AcDbEntity
  8
2
  6
CENTER
 62
     1
100
AcDbLine
 10
2353.546476
 20
183.840402
 30
0.0
 11
2353.546476
 21
232.640406
 31
0.0
  0
LINE
  5
1BD
100
AcDbEntity
  8
2
  6
Continuous
 62
     1
100
AcDbLine
 10
2389.146481
 20
215.940406
 30
0.0
 11
2377.946479
 21
230.140403
 31
0.0
  0
ARC
  5
1BE
100
AcDbEntity
  8
2
  6
Continuous
 62
     1
100
AcDbCircle
 10
2381.546487
 20
232.640406
 30
0.0
 40
4.500001
100
AcDbArc
 50
144.901026
 51
-147.719137
  0
ARC
  5
1BF
100
AcDbEntity
  8
2
  6
Continuous
 62
     1
100
AcDbCircle
 10
2384.746482
 20
248.640406
 30
0.0
 40
3.000001
100
AcDbArc
 50
90.01167
 51
-90.022287
  0
LINE
  5
1C0
100
AcDbEntity
  8
2
  6
Continuous
 62
     1
100
AcDbLine
 10
2386.246483
 20
245.640405
 30
0.0
 11
2377.946479
 21
235.140403
 31
0.0
  0
LINE
  5
1C1
100
AcDbEntity
  8
2
  6
Continuous
 62
     1
100
AcDbLine
 10
2377.946479
 20
262.140404
 30
0.0
 11
2386.246483
 21
251.640407
 31
0.0
  0
ARC
  5
1C2
100
AcDbEntity
  8
2
  6
Continuous
 62
     1
100
AcDbCircle
 10
2381.546487
 20
264.640401
 30
0.0
 40
4.500001
100
AcDbArc
 50
144.901026
 51
-147.719137
  0
LINE
  5
1C3
100
AcDbEntity
  8
2
  6
Continuous
 62
     1
100
AcDbLine
 10
2386.246483
 20
277.640407
 30
0.0
 11
2377.946479
 21
267.140404
 31
0.0
  0
LINE
  5
1C4
100
AcDbEntity
  8
2
  6
Continuous
 62
     1
100
AcDbLine
 10
2377.946479
 20
262.140404
 30
0.0
 11
2386.246483
 21
251.640407
 31
0.0
  0
LINE
  5
1C5
100
AcDbEntity
  8
2
  6
Continuous
 62
     1
100
AcDbLine
 10
2381.746481
 20
264.640401
 30
0.0
 11
2526.046485
 21
264.640401
 31
0.0
  0
LINE
  5
1C6
100
AcDbEntity
  8
2
  6
Continuous
 62
     1
100
AcDbLine
 10
2384.746482
 20
251.640407
 30
0.0
 11
2526.046485
 21
251.640407
 31
0.0
  0
LINE
  5
1C7
100
AcDbEntity
  8
2
  6
CENTER
 62
     1
100
AcDbLine
 10
2378.54648
 20
248.640406
 30
0.0
 11
2526.046485
 21
248.640406
 31
0.0
  0
LINE
  5
1C8
100
AcDbEntity
  8
2
  6
Continuous
 62
     1
100
AcDbLine
 10
2384.746482
 20
245.640405
 30
0.0
 11
2526.046485
 21
245.640405
 31
0.0
  0
LINE
  5
1C9
100
AcDbEntity
  8
2
  6
Continuous
 62
     1
100
AcDbLine
 10
2381.746481
 20
232.640406
 30
0.0
 11
2526.046485
 21
232.640406
 31
0.0
  0
LINE
  5
1CA
100
AcDbEntity
  8
2
  6
Continuous
 62
     1
100
AcDbLine
 10
2526.046485
 20
216.640405
 30
0.0
 11
2333.546478
 21
216.640405
 31
0.0
  0
LINE
  5
1CB
100
AcDbEntity
  8
2
  6
Continuous
 62
     1
100
AcDbLine
 10
2366.046485
 20
196.640401
 30
0.0
 11
2366.046485
 21
189.840409
 31
0.0
  0
LINE
  5
1CC
100
AcDbEntity
  8
2
  6
Continuous
 62
     1
100
AcDbLine
 10
2333.546478
 20
196.640401
 30
0.0
 11
2526.046485
 21
196.640401
 31
0.0
  0
LINE
  5
1CD
100
AcDbEntity
  8
2
  6
Continuous
 62
     1
100
AcDbLine
 10
2366.046485
 20
194.340405
 30
0.0
 11
2526.046485
 21
194.340405
 31
0.0
  0
LINE
  5
1CE
100
AcDbEntity
  8
2
  6
Continuous
 62
     1
100
AcDbLine
 10
2366.046485
 20
192.840404
 30
0.0
 11
2526.046485
 21
192.840404
 31
0.0
  0
LINE
  5
1CF
100
AcDbEntity
  8
2
  6
Continuous
 62
     1
100
AcDbLine
 10
2366.046485
 20
189.840409
 30
0.0
 11
2526.046485
 21
189.840409
 31
0.0
  0
LINE
  5
1D0
100
AcDbEntity
  8
2
  6
Continuous
 62
     1
100
AcDbLine
 10
2718.546493
 20
216.640405
 30
0.0
 11
2718.546493
 21
196.640401
 31
0.0
  0
LINE
  5
1D1
100
AcDbEntity
  8
2
  6
CENTER
 62
     1
100
AcDbLine
 10
2698.546494
 20
183.840402
 30
0.0
 11
2698.546494
 21
232.640406
 31
0.0
  0
LINE
  5
1D2
100
AcDbEntity
  8
2
  6
CENTER
 62
     1
100
AcDbLine
 10
2698.546494
 20
183.840402
 30
0.0
 11
2698.546494
 21
232.640406
 31
0.0
  0
LINE
  5
1D3
100
AcDbEntity
  8
2
  6
Continuous
 62
     1
100
AcDbLine
 10
2662.94649
 20
215.940406
 30
0.0
 11
2674.146492
 21
230.140403
 31
0.0
  0
ARC
  5
1D4
100
AcDbEntity
  8
2
  6
Continuous
 62
     1
100
AcDbCircle
 10
2670.546484
 20
232.640406
 30
0.0
 40
4.500001
100
AcDbArc
 50
-32.280863
 51
35.098974
  0
ARC
  5
1D5
100
AcDbEntity
  8
2
  6
Continuous
 62
     1
100
AcDbCircle
 10
2667.346488
 20
248.640406
 30
0.0
 40
3.000001
100
AcDbArc
 50
-89.977713
 51
89.98833
  0
LINE
  5
1D6
100
AcDbEntity
  8
2
  6
Continuous
 62
     1
100
AcDbLine
 10
2665.846488
 20
245.640405
 30
0.0
 11
2674.146492
 21
235.140403
 31
0.0
  0
LINE
  5
1D7
100
AcDbEntity
  8
2
  6
Continuous
 62
     1
100
AcDbLine
 10
2674.146492
 20
262.140404
 30
0.0
 11
2665.846488
 21
251.640407
 31
0.0
  0
ARC
  5
1D8
100
AcDbEntity
  8
2
  6
Continuous
 62
     1
100
AcDbCircle
 10
2670.546484
 20
264.640401
 30
0.0
 40
4.500001
100
AcDbArc
 50
-32.280863
 51
35.098974
  0
LINE
  5
1D9
100
AcDbEntity
  8
2
  6
Continuous
 62
     1
100
AcDbLine
 10
2665.846488
 20
277.640407
 30
0.0
 11
2674.146492
 21
267.140404
 31
0.0
  0
LINE
  5
1DA
100
AcDbEntity
  8
2
  6
Continuous
 62
     1
100
AcDbLine
 10
2674.146492
 20
262.140404
 30
0.0
 11
2665.846488
 21
251.640407
 31
0.0
  0
LINE
  5
1DB
100
AcDbEntity
  8
2
  6
Continuous
 62
     1
100
AcDbLine
 10
2670.346489
 20
264.640401
 30
0.0
 11
2526.046485
 21
264.640401
 31
0.0
  0
LINE
  5
1DC
100
AcDbEntity
  8
2
  6
Continuous
 62
     1
100
AcDbLine
 10
2667.346488
 20
251.640407
 30
0.0
 11
2526.046485
 21
251.640407
 31
0.0
  0
LINE
  5
1DD
100
AcDbEntity
  8
2
  6
CENTER
 62
     1
100
AcDbLine
 10
2673.54649
 20
248.640406
 30
0.0
 11
2526.046485
 21
248.640406
 31
0.0
  0
LINE
  5
1DE
100
AcDbEntity
  8
2
  6
Continuous
 62
     1
100
AcDbLine
 10
2667.346488
 20
245.640405
 30
0.0
 11
2526.046485
 21
245.640405
 31
0.0
  0
LINE
  5
1DF
100
AcDbEntity
  8
2
  6
Continuous
 62
     1
100
AcDbLine
 10
2670.346489
 20
232.640406
 30
0.0
 11
2526.046485
 21
232.640406
 31
0.0
  0
LINE
  5
1E0
100
AcDbEntity
  8
2
  6
Continuous
 62
     1
100
AcDbLine
 10
2526.046485
 20
216.640405
 30
0.0
 11
2718.546493
 21
216.640405
 31
0.0
  0
LINE
  5
1E1
100
AcDbEntity
  8
2
  6
Continuous
 62
     1
100
AcDbLine
 10
2686.046485
 20
196.640401
 30
0.0
 11
2686.046485
 21
189.840409
 31
0.0
  0
LINE
  5
1E2
100
AcDbEntity
  8
2
  6
Continuous
 62
     1
100
AcDbLine
 10
2718.546493
 20
196.640401
 30
0.0
 11
2526.046485
 21
196.640401
 31
0.0
  0
LINE
  5
1E3
100
AcDbEntity
  8
2
  6
Continuous
 62
     1
100
AcDbLine
 10
2686.046485
 20
194.340405
 30
0.0
 11
2526.046485
 21
194.340405
 31
0.0
  0
LINE
  5
1E4
100
AcDbEntity
  8
2
  6
Continuous
 62
     1
100
AcDbLine
 10
2686.046485
 20
192.840404
 30
0.0
 11
2526.046485
 21
192.840404
 31
0.0
  0
LINE
  5
1E5
100
AcDbEntity
  8
2
  6
Continuous
 62
     1
100
AcDbLine
 10
2686.046485
 20
189.840409
 30
0.0
 11
2526.046485
 21
189.840409
 31
0.0
  0
LINE
  5
1E6
100
AcDbEntity
  8
2
  6
Continuous
 62
     1
100
AcDbLine
 10
2781.046493
 20
216.640405
 30
0.0
 11
2781.046493
 21
196.640401
 31
0.0
  0
LINE
  5
1E7
100
AcDbEntity
  8
2
  6
CENTER
 62
     1
100
AcDbLine
 10
2801.046491
 20
183.840402
 30
0.0
 11
2801.046491
 21
232.640406
 31
0.0
  0
LINE
  5
1E8
100
AcDbEntity
  8
2
  6
CENTER
 62
     1
100
AcDbLine
 10
2801.046491
 20
183.840402
 30
0.0
 11
2801.046491
 21
232.640406
 31
0.0
  0
LINE
  5
1E9
100
AcDbEntity
  8
2
  6
Continuous
 62
     1
100
AcDbLine
 10
2836.646495
 20
215.940406
 30
0.0
 11
2825.446493
 21
230.140403
 31
0.0
  0
ARC
  5
1EA
100
AcDbEntity
  8
2
  6
Continuous
 62
     1
100
AcDbCircle
 10
2829.046501
 20
232.640406
 30
0.0
 40
4.500001
100
AcDbArc
 50
144.901026
 51
-147.719137
  0
ARC
  5
1EB
100
AcDbEntity
  8
2
  6
Continuous
 62
     1
100
AcDbCircle
 10
2832.246497
 20
248.640406
 30
0.0
 40
3.000001
100
AcDbArc
 50
90.01167
 51
-90.022287
  0
LINE
  5
1EC
100
AcDbEntity
  8
2
  6
Continuous
 62
     1
100
AcDbLine
 10
2833.746497
 20
245.640405
 30
0.0
 11
2825.446493
 21
235.140403
 31
0.0
  0
LINE
  5
1ED
100
AcDbEntity
  8
2
  6
Continuous
 62
     1
100
AcDbLine
 10
2825.446493
 20
262.140404
 30
0.0
 11
2833.746497
 21
251.640407
 31
0.0
  0
ARC
  5
1EE
100
AcDbEntity
  8
2
  6
Continuous
 62
     1
100
AcDbCircle
 10
2829.046501
 20
264.640401
 30
0.0
 40
4.500001
100
AcDbArc
 50
144.901026
 51
-147.719137
  0
LINE
  5
1EF
100
AcDbEntity
  8
2
  6
Continuous
 62
     1
100
AcDbLine
 10
2833.746497
 20
277.640407
 30
0.0
 11
2825.446493
 21
267.140404
 31
0.0
  0
LINE
  5
1F0
100
AcDbEntity
  8
2
  6
Continuous
 62
     1
100
AcDbLine
 10
2825.446493
 20
262.140404
 30
0.0
 11
2833.746497
 21
251.640407
 31
0.0
  0
LINE
  5
1F1
100
AcDbEntity
  8
2
  6
Continuous
 62
     1
100
AcDbLine
 10
2829.246496
 20
264.640401
 30
0.0
 11
2973.5465
 21
264.640401
 31
0.0
  0
LINE
  5
1F2
100
AcDbEntity
  8
2
  6
Continuous
 62
     1
100
AcDbLine
 10
2832.246497
 20
251.640407
 30
0.0
 11
2973.5465
 21
251.640407
 31
0.0
  0
LINE
  5
1F3
100
AcDbEntity
  8
2
  6
CENTER
 62
     1
100
AcDbLine
 10
2826.046495
 20
248.640406
 30
0.0
 11
2973.5465
 21
248.640406
 31
0.0
  0
LINE
  5
1F4
100
AcDbEntity
  8
2
  6
Continuous
 62
     1
100
AcDbLine
 10
2832.246497
 20
245.640405
 30
0.0
 11
2973.5465
 21
245.640405
 31
0.0
  0
LINE
  5
1F5
100
AcDbEntity
  8
2
  6
Continuous
 62
     1
100
AcDbLine
 10
2829.246496
 20
232.640406
 30
0.0
 11
2973.5465
 21
232.640406
 31
0.0
  0
LINE
  5
1F6
100
AcDbEntity
  8
2
  6
Continuous
 62
     1
100
AcDbLine
 10
2973.5465
 20
216.640405
 30
0.0
 11
2781.046493
 21
216.640405
 31
0.0
  0
LINE
  5
1F7
100
AcDbEntity
  8
2
  6
Continuous
 62
     1
100
AcDbLine
 10
2813.5465
 20
196.640401
 30
0.0
 11
2813.5465
 21
189.840409
 31
0.0
  0
LINE
  5
1F8
100
AcDbEntity
  8
2
  6
Continuous
 62
     1
100
AcDbLine
 10
2781.046493
 20
196.640401
 30
0.0
 11
2973.5465
 21
196.640401
 31
0.0
  0
LINE
  5
1F9
100
AcDbEntity
  8
2
  6
Continuous
 62
     1
100
AcDbLine
 10
2813.5465
 20
194.340405
 30
0.0
 11
2973.5465
 21
194.340405
 31
0.0
  0
LINE
  5
1FA
100
AcDbEntity
  8
2
  6
Continuous
 62
     1
100
AcDbLine
 10
2813.5465
 20
192.840404
 30
0.0
 11
2973.5465
 21
192.840404
 31
0.0
  0
LINE
  5
1FB
100
AcDbEntity
  8
2
  6
Continuous
 62
     1
100
AcDbLine
 10
2813.5465
 20
189.840409
 30
0.0
 11
2973.5465
 21
189.840409
 31
0.0
  0
LINE
  5
1FC
100
AcDbEntity
  8
2
  6
Continuous
 62
     1
100
AcDbLine
 10
3166.046507
 20
216.640405
 30
0.0
 11
3166.046507
 21
196.640401
 31
0.0
  0
LINE
  5
1FD
100
AcDbEntity
  8
2
  6
CENTER
 62
     1
100
AcDbLine
 10
3146.046509
 20
183.840402
 30
0.0
 11
3146.046509
 21
232.640406
 31
0.0
  0
LINE
  5
1FE
100
AcDbEntity
  8
2
  6
CENTER
 62
     1
100
AcDbLine
 10
3146.046509
 20
183.840402
 30
0.0
 11
3146.046509
 21
232.640406
 31
0.0
  0
LINE
  5
1FF
100
AcDbEntity
  8
2
  6
Continuous
 62
     1
100
AcDbLine
 10
3110.446505
 20
215.940406
 30
0.0
 11
3121.646506
 21
230.140403
 31
0.0
  0
ARC
  5
200
100
AcDbEntity
  8
2
  6
Continuous
 62
     1
100
AcDbCircle
 10
3118.046499
 20
232.640406
 30
0.0
 40
4.500001
100
AcDbArc
 50
-32.280863
 51
35.098974
  0
ARC
  5
201
100
AcDbEntity
  8
2
  6
Continuous
 62
     1
100
AcDbCircle
 10
3114.846503
 20
248.640406
 30
0.0
 40
3.000001
100
AcDbArc
 50
-89.977713
 51
89.98833
  0
LINE
  5
202
100
AcDbEntity
  8
2
  6
Continuous
 62
     1
100
AcDbLine
 10
3113.346502
 20
245.640405
 30
0.0
 11
3121.646506
 21
235.140403
 31
0.0
  0
LINE
  5
203
100
AcDbEntity
  8
2
  6
Continuous
 62
     1
100
AcDbLine
 10
3121.646506
 20
262.140404
 30
0.0
 11
3113.346502
 21
251.640407
 31
0.0
  0
ARC
  5
204
100
AcDbEntity
  8
2
  6
Continuous
 62
     1
100
AcDbCircle
 10
3118.046499
 20
264.640401
 30
0.0
 40
4.500001
100
AcDbArc
 50
-32.280863
 51
35.098974
  0
LINE
  5
205
100
AcDbEntity
  8
2
  6
Continuous
 62
     1
100
AcDbLine
 10
3113.346502
 20
277.640407
 30
0.0
 11
3121.646506
 21
267.140404
 31
0.0
  0
LINE
  5
206
100
AcDbEntity
  8
2
  6
Continuous
 62
     1
100
AcDbLine
 10
3121.646506
 20
262.140404
 30
0.0
 11
3113.346502
 21
251.640407
 31
0.0
  0
LINE
  5
207
100
AcDbEntity
  8
2
  6
Continuous
 62
     1
100
AcDbLine
 10
3117.846504
 20
264.640401
 30
0.0
 11
2973.5465
 21
264.640401
 31
0.0
  0
LINE
  5
208
100
AcDbEntity
  8
2
  6
Continuous
 62
     1
100
AcDbLine
 10
3114.846503
 20
251.640407
 30
0.0
 11
2973.5465
 21
251.640407
 31
0.0
  0
LINE
  5
209
100
AcDbEntity
  8
2
  6
CENTER
 62
     1
100
AcDbLine
 10
3121.046505
 20
248.640406
 30
0.0
 11
2973.5465
 21
248.640406
 31
0.0
  0
LINE
  5
20A
100
AcDbEntity
  8
2
  6
Continuous
 62
     1
100
AcDbLine
 10
3114.846503
 20
245.640405
 30
0.0
 11
2973.5465
 21
245.640405
 31
0.0
  0
LINE
  5
20B
100
AcDbEntity
  8
2
  6
Continuous
 62
     1
100
AcDbLine
 10
3117.846504
 20
232.640406
 30
0.0
 11
2973.5465
 21
232.640406
 31
0.0
  0
LINE
  5
20C
100
AcDbEntity
  8
2
  6
Continuous
 62
     1
100
AcDbLine
 10
2973.5465
 20
216.640405
 30
0.0
 11
3166.046507
 21
216.640405
 31
0.0
  0
LINE
  5
20D
100
AcDbEntity
  8
2
  6
Continuous
 62
     1
100
AcDbLine
 10
3133.5465
 20
196.640401
 30
0.0
 11
3133.5465
 21
189.840409
 31
0.0
  0
LINE
  5
20E
100
AcDbEntity
  8
2
  6
Continuous
 62
     1
100
AcDbLine
 10
3166.046507
 20
196.640401
 30
0.0
 11
2973.5465
 21
196.640401
 31
0.0
  0
LINE
  5
20F
100
AcDbEntity
  8
2
  6
Continuous
 62
     1
100
AcDbLine
 10
3133.5465
 20
194.340405
 30
0.0
 11
2973.5465
 21
194.340405
 31
0.0
  0
LINE
  5
210
100
AcDbEntity
  8
2
  6
Continuous
 62
     1
100
AcDbLine
 10
3133.5465
 20
192.840404
 30
0.0
 11
2973.5465
 21
192.840404
 31
0.0
  0
LINE
  5
211
100
AcDbEntity
  8
2
  6
Continuous
 62
     1
100
AcDbLine
 10
3133.5465
 20
189.840409
 30
0.0
 11
2973.5465
 21
189.840409
 31
0.0
  0
LINE
  5
212
100
AcDbEntity
  8
2
  6
Continuous
 62
     1
100
AcDbLine
 10
232.648234
 20
449.601211
 30
0.0
 11
232.548231
 21
449.601211
 31
0.0
  0
LINE
  5
213
100
AcDbEntity
  8
2
  6
Continuous
 62
     1
100
AcDbLine
 10
96.046406
 20
384.640411
 30
0.0
 11
96.046406
 21
404.640409
 31
0.0
  0
LINE
  5
214
100
AcDbEntity
  8
2
  6
CENTER
 62
     1
100
AcDbLine
 10
116.046404
 20
417.440408
 30
0.0
 11
116.046404
 21
368.64041
 31
0.0
  0
LINE
  5
215
100
AcDbEntity
  8
2
  6
CENTER
 62
     1
100
AcDbLine
 10
116.046404
 20
372.34041
 30
0.0
 11
116.046404
 21
417.440408
 31
0.0
  0
LINE
  5
216
100
AcDbEntity
  8
2
  6
Continuous
 62
     1
100
AcDbLine
 10
96.046406
 20
404.640409
 30
0.0
 11
288.546413
 21
404.640409
 31
0.0
  0
LINE
  5
217
100
AcDbEntity
  8
2
  6
Continuous
 62
     1
100
AcDbLine
 10
288.546413
 20
384.640411
 30
0.0
 11
96.046406
 21
384.640411
 31
0.0
  0
ARC
  5
218
100
AcDbEntity
  8
2
  6
Continuous
 62
     1
100
AcDbCircle
 10
144.046414
 20
368.64041
 30
0.0
 40
4.500001
100
AcDbArc
 50
147.70852
 51
-144.911644
  0
ARC
  5
219
100
AcDbEntity
  8
2
  6
Continuous
 62
     1
100
AcDbCircle
 10
147.24641
 20
352.640409
 30
0.0
 40
3.000001
100
AcDbArc
 50
90.01167
 51
-90.022287
  0
LINE
  5
21A
100
AcDbEntity
  8
2
  6
Continuous
 62
     1
100
AcDbLine
 10
148.74641
 20
355.640405
 30
0.0
 11
140.446407
 21
366.140408
 31
0.0
  0
LINE
  5
21B
100
AcDbEntity
  8
2
  6
Continuous
 62
     1
100
AcDbLine
 10
140.446407
 20
339.140406
 30
0.0
 11
148.74641
 21
349.640409
 31
0.0
  0
ARC
  5
21C
100
AcDbEntity
  8
2
  6
Continuous
 62
     1
100
AcDbCircle
 10
144.046414
 20
336.640403
 30
0.0
 40
4.500001
100
AcDbArc
 50
147.70852
 51
-144.911644
  0
LINE
  5
21D
100
AcDbEntity
  8
2
  6
Continuous
 62
     1
100
AcDbLine
 10
148.74641
 20
323.640409
 30
0.0
 11
140.446407
 21
334.140406
 31
0.0
  0
LINE
  5
21E
100
AcDbEntity
  8
2
  6
Continuous
 62
     1
100
AcDbLine
 10
140.446407
 20
339.140406
 30
0.0
 11
148.74641
 21
349.640409
 31
0.0
  0
LINE
  5
21F
100
AcDbEntity
  8
2
  6
Continuous
 62
     1
100
AcDbLine
 10
151.094297
 20
384.640411
 30
0.0
 11
140.446407
 21
371.140407
 31
0.0
  0
LINE
  5
220
100
AcDbEntity
  8
2
  6
Continuous
 62
     1
100
AcDbLine
 10
144.246409
 20
368.64041
 30
0.0
 11
288.546413
 21
368.64041
 31
0.0
  0
LINE
  5
221
100
AcDbEntity
  8
2
  6
Continuous
 62
     1
100
AcDbLine
 10
147.24641
 20
355.640405
 30
0.0
 11
288.546413
 21
355.640405
 31
0.0
  0
LINE
  5
222
100
AcDbEntity
  8
2
  6
CENTER
 62
     1
100
AcDbLine
 10
141.046408
 20
352.640409
 30
0.0
 11
288.546413
 21
352.640409
 31
0.0
  0
LINE
  5
223
100
AcDbEntity
  8
2
  6
Continuous
 62
     1
100
AcDbLine
 10
147.24641
 20
349.640409
 30
0.0
 11
288.546413
 21
349.640409
 31
0.0
  0
LINE
  5
224
100
AcDbEntity
  8
2
  6
Continuous
 62
     1
100
AcDbLine
 10
144.246409
 20
336.640403
 30
0.0
 11
288.546413
 21
336.640403
 31
0.0
  0
LINE
  5
225
100
AcDbEntity
  8
2
  6
Continuous
 62
     1
100
AcDbLine
 10
128.546413
 20
404.640409
 30
0.0
 11
128.546413
 21
409.840409
 31
0.0
  0
LINE
  5
226
100
AcDbEntity
  8
2
  6
Continuous
 62
     1
100
AcDbLine
 10
128.546413
 20
409.840409
 30
0.0
 11
288.546413
 21
409.840409
 31
0.0
  0
LINE
  5
227
100
AcDbEntity
  8
2
  6
Continuous
 62
     1
100
AcDbLine
 10
128.546413
 20
406.840408
 30
0.0
 11
288.546413
 21
406.840408
 31
0.0
  0
LINE
  5
228
100
AcDbEntity
  8
2
  6
Continuous
 62
     1
100
AcDbLine
 10
128.546413
 20
406.040406
 30
0.0
 11
288.546413
 21
406.040406
 31
0.0
  0
LINE
  5
229
100
AcDbEntity
  8
2
  6
Continuous
 62
     1
100
AcDbLine
 10
481.04642
 20
384.640411
 30
0.0
 11
481.04642
 21
404.640409
 31
0.0
  0
LINE
  5
22A
100
AcDbEntity
  8
2
  6
CENTER
 62
     1
100
AcDbLine
 10
461.046422
 20
417.440408
 30
0.0
 11
461.046422
 21
368.64041
 31
0.0
  0
LINE
  5
22B
100
AcDbEntity
  8
2
  6
CENTER
 62
     1
100
AcDbLine
 10
461.046422
 20
372.34041
 30
0.0
 11
461.046422
 21
417.440408
 31
0.0
  0
LINE
  5
22C
100
AcDbEntity
  8
2
  6
Continuous
 62
     1
100
AcDbLine
 10
481.04642
 20
404.640409
 30
0.0
 11
288.546413
 21
404.640409
 31
0.0
  0
LINE
  5
22D
100
AcDbEntity
  8
2
  6
Continuous
 62
     1
100
AcDbLine
 10
288.546413
 20
384.640411
 30
0.0
 11
481.04642
 21
384.640411
 31
0.0
  0
ARC
  5
22E
100
AcDbEntity
  8
2
  6
Continuous
 62
     1
100
AcDbCircle
 10
433.046412
 20
368.64041
 30
0.0
 40
4.500001
100
AcDbArc
 50
-35.088356
 51
32.29148
  0
ARC
  5
22F
100
AcDbEntity
  8
2
  6
Continuous
 62
     1
100
AcDbCircle
 10
429.846416
 20
352.640409
 30
0.0
 40
3.000001
100
AcDbArc
 50
-89.977713
 51
89.98833
  0
LINE
  5
230
100
AcDbEntity
  8
2
  6
Continuous
 62
     1
100
AcDbLine
 10
428.346416
 20
355.640405
 30
0.0
 11
436.646419
 21
366.140408
 31
0.0
  0
LINE
  5
231
100
AcDbEntity
  8
2
  6
Continuous
 62
     1
100
AcDbLine
 10
436.646419
 20
339.140406
 30
0.0
 11
428.346416
 21
349.640409
 31
0.0
  0
ARC
  5
232
100
AcDbEntity
  8
2
  6
Continuous
 62
     1
100
AcDbCircle
 10
433.046412
 20
336.640403
 30
0.0
 40
4.500001
100
AcDbArc
 50
-35.088356
 51
32.29148
  0
LINE
  5
233
100
AcDbEntity
  8
2
  6
Continuous
 62
     1
100
AcDbLine
 10
428.346416
 20
323.640409
 30
0.0
 11
436.646419
 21
334.140406
 31
0.0
  0
LINE
  5
234
100
AcDbEntity
  8
2
  6
Continuous
 62
     1
100
AcDbLine
 10
436.646419
 20
339.140406
 30
0.0
 11
428.346416
 21
349.640409
 31
0.0
  0
LINE
  5
235
100
AcDbEntity
  8
2
  6
Continuous
 62
     1
100
AcDbLine
 10
425.998529
 20
384.640411
 30
0.0
 11
436.646419
 21
371.140407
 31
0.0
  0
LINE
  5
236
100
AcDbEntity
  8
2
  6
Continuous
 62
     1
100
AcDbLine
 10
432.846417
 20
368.64041
 30
0.0
 11
288.546413
 21
368.64041
 31
0.0
  0
LINE
  5
237
100
AcDbEntity
  8
2
  6
Continuous
 62
     1
100
AcDbLine
 10
429.846416
 20
355.640405
 30
0.0
 11
288.546413
 21
355.640405
 31
0.0
  0
LINE
  5
238
100
AcDbEntity
  8
2
  6
CENTER
 62
     1
100
AcDbLine
 10
436.046418
 20
352.640409
 30
0.0
 11
288.546413
 21
352.640409
 31
0.0
  0
LINE
  5
239
100
AcDbEntity
  8
2
  6
Continuous
 62
     1
100
AcDbLine
 10
429.846416
 20
349.640409
 30
0.0
 11
288.546413
 21
349.640409
 31
0.0
  0
LINE
  5
23A
100
AcDbEntity
  8
2
  6
Continuous
 62
     1
100
AcDbLine
 10
432.846417
 20
336.640403
 30
0.0
 11
288.546413
 21
336.640403
 31
0.0
  0
LINE
  5
23B
100
AcDbEntity
  8
2
  6
Continuous
 62
     1
100
AcDbLine
 10
448.546413
 20
404.640409
 30
0.0
 11
448.546413
 21
409.840409
 31
0.0
  0
LINE
  5
23C
100
AcDbEntity
  8
2
  6
Continuous
 62
     1
100
AcDbLine
 10
448.546413
 20
409.840409
 30
0.0
 11
288.546413
 21
409.840409
 31
0.0
  0
LINE
  5
23D
100
AcDbEntity
  8
2
  6
Continuous
 62
     1
100
AcDbLine
 10
448.546413
 20
406.840408
 30
0.0
 11
288.546413
 21
406.840408
 31
0.0
  0
LINE
  5
23E
100
AcDbEntity
  8
2
  6
Continuous
 62
     1
100
AcDbLine
 10
448.546413
 20
406.040406
 30
0.0
 11
288.546413
 21
406.040406
 31
0.0
  0
LINE
  5
23F
100
AcDbEntity
  8
2
  6
CENTER
 62
     1
100
AcDbLine
 10
288.546413
 20
435.951778
 30
0.0
 11
288.546413
 21
133.214185
 31
0.0
  0
LINE
  5
240
100
AcDbEntity
  8
2
  6
CENTER
 62
     1
100
AcDbLine
 10
139.546413
 20
264.640401
 30
0.0
 11
139.546413
 21
337.780093
 31
0.0
  0
LINE
  5
241
100
AcDbEntity
  8
2
  6
CENTER
 62
     1
100
AcDbLine
 10
437.546413
 20
264.640401
 30
0.0
 11
437.546413
 21
337.780093
 31
0.0
  0
ARC
  5
242
100
AcDbEntity
  8
2
  6
Continuous
 62
     1
100
AcDbCircle
 10
167.325845
 20
155.240404
 30
0.0
 40
1.000002
100
AcDbArc
 50
-84.292709
 51
-0.010617
  0
LINE
  5
243
100
AcDbEntity
  8
2
  6
Continuous
 62
     1
100
AcDbLine
 10
168.225844
 20
158.540408
 30
0.0
 11
168.325842
 21
155.240404
 31
0.0
  0
ARC
  5
244
100
AcDbEntity
  8
2
  6
Continuous
 62
     1
100
AcDbCircle
 10
167.72584
 20
152.040408
 30
0.0
 40
2.199999
100
AcDbArc
 50
97.7466
 51
-90.022287
  0
LINE
  5
245
100
AcDbEntity
  8
2
  6
Continuous
 62
     1
100
AcDbLine
 10
168.225844
 20
158.540408
 30
0.0
 11
288.546413
 21
158.540408
 31
0.0
  0
LINE
  5
246
100
AcDbEntity
  8
2
  6
Continuous
 62
     1
100
AcDbLine
 10
167.72584
 20
154.14041
 30
0.0
 11
288.546413
 21
154.14041
 31
0.0
  0
LINE
  5
247
100
AcDbEntity
  8
2
  6
Continuous
 62
     1
100
AcDbLine
 10
167.72584
 20
152.040408
 30
0.0
 11
288.546413
 21
152.040408
 31
0.0
  0
LINE
  5
248
100
AcDbEntity
  8
2
  6
Continuous
 62
     1
100
AcDbLine
 10
167.72584
 20
149.840409
 30
0.0
 11
288.546413
 21
149.840409
 31
0.0
  0
ARC
  5
249
100
AcDbEntity
  8
2
  6
Continuous
 62
     1
100
AcDbCircle
 10
409.766981
 20
155.240404
 30
0.0
 40
1.000002
100
AcDbArc
 50
-179.989383
 51
-95.707291
  0
LINE
  5
24A
100
AcDbEntity
  8
2
  6
Continuous
 62
     1
100
AcDbLine
 10
408.866982
 20
158.540408
 30
0.0
 11
408.766984
 21
155.240404
 31
0.0
  0
ARC
  5
24B
100
AcDbEntity
  8
2
  6
Continuous
 62
     1
100
AcDbCircle
 10
409.366986
 20
152.040408
 30
0.0
 40
2.199999
100
AcDbArc
 50
-89.977713
 51
82.2534
  0
LINE
  5
24C
100
AcDbEntity
  8
2
  6
Continuous
 62
     1
100
AcDbLine
 10
408.866982
 20
158.540408
 30
0.0
 11
288.546413
 21
158.540408
 31
0.0
  0
LINE
  5
24D
100
AcDbEntity
  8
2
  6
Continuous
 62
     1
100
AcDbLine
 10
409.366986
 20
154.14041
 30
0.0
 11
288.546413
 21
154.14041
 31
0.0
  0
LINE
  5
24E
100
AcDbEntity
  8
2
  6
Continuous
 62
     1
100
AcDbLine
 10
409.366986
 20
152.040408
 30
0.0
 11
288.546413
 21
152.040408
 31
0.0
  0
LINE
  5
24F
100
AcDbEntity
  8
2
  6
Continuous
 62
     1
100
AcDbLine
 10
409.366986
 20
149.840409
 30
0.0
 11
288.546413
 21
149.840409
 31
0.0
  0
LINE
  5
250
100
AcDbEntity
  8
2
  6
Continuous
 62
     1
100
AcDbLine
 10
169.052287
 20
158.540408
 30
0.0
 11
167.758898
 21
189.840409
 31
0.0
  0
LINE
  5
251
100
AcDbEntity
  8
2
  6
Continuous
 62
     1
100
AcDbLine
 10
408.040539
 20
158.540408
 30
0.0
 11
409.333928
 21
189.840409
 31
0.0
  0
ARC
  5
252
100
AcDbEntity
  8
2
  6
Continuous
 62
     1
100
AcDbCircle
 10
614.82586
 20
155.240404
 30
0.0
 40
1.000002
100
AcDbArc
 50
-84.292709
 51
-0.010617
  0
LINE
  5
253
100
AcDbEntity
  8
2
  6
Continuous
 62
     1
100
AcDbLine
 10
615.725859
 20
158.540408
 30
0.0
 11
615.825856
 21
155.240404
 31
0.0
  0
ARC
  5
254
100
AcDbEntity
  8
2
  6
Continuous
 62
     1
100
AcDbCircle
 10
615.225855
 20
152.040408
 30
0.0
 40
2.199999
100
AcDbArc
 50
97.7466
 51
-90.022287
  0
LINE
  5
255
100
AcDbEntity
  8
2
  6
Continuous
 62
     1
100
AcDbLine
 10
615.725859
 20
158.540408
 30
0.0
 11
736.046428
 21
158.540408
 31
0.0
  0
LINE
  5
256
100
AcDbEntity
  8
2
  6
Continuous
 62
     1
100
AcDbLine
 10
615.225855
 20
154.14041
 30
0.0
 11
736.046428
 21
154.14041
 31
0.0
  0
LINE
  5
257
100
AcDbEntity
  8
2
  6
Continuous
 62
     1
100
AcDbLine
 10
615.225855
 20
152.040408
 30
0.0
 11
736.046428
 21
152.040408
 31
0.0
  0
LINE
  5
258
100
AcDbEntity
  8
2
  6
Continuous
 62
     1
100
AcDbLine
 10
615.225855
 20
149.840409
 30
0.0
 11
736.046428
 21
149.840409
 31
0.0
  0
ARC
  5
259
100
AcDbEntity
  8
2
  6
Continuous
 62
     1
100
AcDbCircle
 10
857.266995
 20
155.240404
 30
0.0
 40
1.000002
100
AcDbArc
 50
-179.989383
 51
-95.707291
  0
LINE
  5
25A
100
AcDbEntity
  8
2
  6
Continuous
 62
     1
100
AcDbLine
 10
856.366996
 20
158.540408
 30
0.0
 11
856.266999
 21
155.240404
 31
0.0
  0
ARC
  5
25B
100
AcDbEntity
  8
2
  6
Continuous
 62
     1
100
AcDbCircle
 10
856.867
 20
152.040408
 30
0.0
 40
2.199999
100
AcDbArc
 50
-89.977713
 51
82.2534
  0
LINE
  5
25C
100
AcDbEntity
  8
2
  6
Continuous
 62
     1
100
AcDbLine
 10
856.366996
 20
158.540408
 30
0.0
 11
736.046428
 21
158.540408
 31
0.0
  0
LINE
  5
25D
100
AcDbEntity
  8
2
  6
Continuous
 62
     1
100
AcDbLine
 10
856.867
 20
154.14041
 30
0.0
 11
736.046428
 21
154.14041
 31
0.0
  0
LINE
  5
25E
100
AcDbEntity
  8
2
  6
Continuous
 62
     1
100
AcDbLine
 10
856.867
 20
152.040408
 30
0.0
 11
736.046428
 21
152.040408
 31
0.0
  0
LINE
  5
25F
100
AcDbEntity
  8
2
  6
Continuous
 62
     1
100
AcDbLine
 10
856.867
 20
149.840409
 30
0.0
 11
736.046428
 21
149.840409
 31
0.0
  0
LINE
  5
260
100
AcDbEntity
  8
2
  6
Continuous
 62
     1
100
AcDbLine
 10
616.552301
 20
158.540408
 30
0.0
 11
615.258913
 21
189.840409
 31
0.0
  0
LINE
  5
261
100
AcDbEntity
  8
2
  6
Continuous
 62
     1
100
AcDbLine
 10
855.540554
 20
158.540408
 30
0.0
 11
856.833942
 21
189.840409
 31
0.0
  0
ARC
  5
262
100
AcDbEntity
  8
2
  6
Continuous
 62
     1
100
AcDbCircle
 10
1062.325874
 20
155.240404
 30
0.0
 40
1.000002
100
AcDbArc
 50
-84.292709
 51
-0.010617
  0
LINE
  5
263
100
AcDbEntity
  8
2
  6
Continuous
 62
     1
100
AcDbLine
 10
1063.225873
 20
158.540408
 30
0.0
 11
1063.325871
 21
155.240404
 31
0.0
  0
ARC
  5
264
100
AcDbEntity
  8
2
  6
Continuous
 62
     1
100
AcDbCircle
 10
1062.725869
 20
152.040408
 30
0.0
 40
2.199999
100
AcDbArc
 50
97.7466
 51
-90.022287
  0
LINE
  5
265
100
AcDbEntity
  8
2
  6
Continuous
 62
     1
100
AcDbLine
 10
1063.225873
 20
158.540408
 30
0.0
 11
1183.546442
 21
158.540408
 31
0.0
  0
LINE
  5
266
100
AcDbEntity
  8
2
  6
Continuous
 62
     1
100
AcDbLine
 10
1062.725869
 20
154.14041
 30
0.0
 11
1183.546442
 21
154.14041
 31
0.0
  0
LINE
  5
267
100
AcDbEntity
  8
2
  6
Continuous
 62
     1
100
AcDbLine
 10
1062.725869
 20
152.040408
 30
0.0
 11
1183.546442
 21
152.040408
 31
0.0
  0
LINE
  5
268
100
AcDbEntity
  8
2
  6
Continuous
 62
     1
100
AcDbLine
 10
1062.725869
 20
149.840409
 30
0.0
 11
1183.546442
 21
149.840409
 31
0.0
  0
ARC
  5
269
100
AcDbEntity
  8
2
  6
Continuous
 62
     1
100
AcDbCircle
 10
1304.76701
 20
155.240404
 30
0.0
 40
1.000002
100
AcDbArc
 50
-179.989383
 51
-95.707291
  0
LINE
  5
26A
100
AcDbEntity
  8
2
  6
Continuous
 62
     1
100
AcDbLine
 10
1303.867011
 20
158.540408
 30
0.0
 11
1303.767013
 21
155.240404
 31
0.0
  0
ARC
  5
26B
100
AcDbEntity
  8
2
  6
Continuous
 62
     1
100
AcDbCircle
 10
1304.367015
 20
152.040408
 30
0.0
 40
2.199999
100
AcDbArc
 50
-89.977713
 51
82.2534
  0
LINE
  5
26C
100
AcDbEntity
  8
2
  6
Continuous
 62
     1
100
AcDbLine
 10
1303.867011
 20
158.540408
 30
0.0
 11
1183.546442
 21
158.540408
 31
0.0
  0
LINE
  5
26D
100
AcDbEntity
  8
2
  6
Continuous
 62
     1
100
AcDbLine
 10
1304.367015
 20
154.14041
 30
0.0
 11
1183.546442
 21
154.14041
 31
0.0
  0
LINE
  5
26E
100
AcDbEntity
  8
2
  6
Continuous
 62
     1
100
AcDbLine
 10
1304.367015
 20
152.040408
 30
0.0
 11
1183.546442
 21
152.040408
 31
0.0
  0
LINE
  5
26F
100
AcDbEntity
  8
2
  6
Continuous
 62
     1
100
AcDbLine
 10
1304.367015
 20
149.840409
 30
0.0
 11
1183.546442
 21
149.840409
 31
0.0
  0
LINE
  5
270
100
AcDbEntity
  8
2
  6
Continuous
 62
     1
100
AcDbLine
 10
1064.052316
 20
158.540408
 30
0.0
 11
1062.758927
 21
189.840409
 31
0.0
  0
LINE
  5
271
100
AcDbEntity
  8
2
  6
Continuous
 62
     1
100
AcDbLine
 10
1303.040568
 20
158.540408
 30
0.0
 11
1304.333957
 21
189.840409
 31
0.0
  0
ARC
  5
272
100
AcDbEntity
  8
2
  6
Continuous
 62
     1
100
AcDbCircle
 10
1509.825888
 20
155.240404
 30
0.0
 40
1.000002
100
AcDbArc
 50
-84.292709
 51
-0.010617
  0
LINE
  5
273
100
AcDbEntity
  8
2
  6
Continuous
 62
     1
100
AcDbLine
 10
1510.725888
 20
158.540408
 30
0.0
 11
1510.825885
 21
155.240404
 31
0.0
  0
ARC
  5
274
100
AcDbEntity
  8
2
  6
Continuous
 62
     1
100
AcDbCircle
 10
1510.225884
 20
152.040408
 30
0.0
 40
2.199999
100
AcDbArc
 50
97.7466
 51
-90.022287
  0
LINE
  5
275
100
AcDbEntity
  8
2
  6
Continuous
 62
     1
100
AcDbLine
 10
1510.725888
 20
158.540408
 30
0.0
 11
1631.046456
 21
158.540408
 31
0.0
  0
LINE
  5
276
100
AcDbEntity
  8
2
  6
Continuous
 62
     1
100
AcDbLine
 10
1510.225884
 20
154.14041
 30
0.0
 11
1631.046456
 21
154.14041
 31
0.0
  0
LINE
  5
277
100
AcDbEntity
  8
2
  6
Continuous
 62
     1
100
AcDbLine
 10
1510.225884
 20
152.040408
 30
0.0
 11
1631.046456
 21
152.040408
 31
0.0
  0
LINE
  5
278
100
AcDbEntity
  8
2
  6
Continuous
 62
     1
100
AcDbLine
 10
1510.225884
 20
149.840409
 30
0.0
 11
1631.046456
 21
149.840409
 31
0.0
  0
ARC
  5
279
100
AcDbEntity
  8
2
  6
Continuous
 62
     1
100
AcDbCircle
 10
1752.267024
 20
155.240404
 30
0.0
 40
1.000002
100
AcDbArc
 50
-179.989383
 51
-95.707291
  0
LINE
  5
27A
100
AcDbEntity
  8
2
  6
Continuous
 62
     1
100
AcDbLine
 10
1751.367025
 20
158.540408
 30
0.0
 11
1751.267028
 21
155.240404
 31
0.0
  0
ARC
  5
27B
100
AcDbEntity
  8
2
  6
Continuous
 62
     1
100
AcDbCircle
 10
1751.867029
 20
152.040408
 30
0.0
 40
2.199999
100
AcDbArc
 50
-89.977713
 51
82.2534
  0
LINE
  5
27C
100
AcDbEntity
  8
2
  6
Continuous
 62
     1
100
AcDbLine
 10
1751.367025
 20
158.540408
 30
0.0
 11
1631.046456
 21
158.540408
 31
0.0
  0
LINE
  5
27D
100
AcDbEntity
  8
2
  6
Continuous
 62
     1
100
AcDbLine
 10
1751.867029
 20
154.14041
 30
0.0
 11
1631.046456
 21
154.14041
 31
0.0
  0
LINE
  5
27E
100
AcDbEntity
  8
2
  6
Continuous
 62
     1
100
AcDbLine
 10
1751.867029
 20
152.040408
 30
0.0
 11
1631.046456
 21
152.040408
 31
0.0
  0
LINE
  5
27F
100
AcDbEntity
  8
2
  6
Continuous
 62
     1
100
AcDbLine
 10
1751.867029
 20
149.840409
 30
0.0
 11
1631.046456
 21
149.840409
 31
0.0
  0
LINE
  5
280
100
AcDbEntity
  8
2
  6
Continuous
 62
     1
100
AcDbLine
 10
1511.55233
 20
158.540408
 30
0.0
 11
1510.258942
 21
189.840409
 31
0.0
  0
LINE
  5
281
100
AcDbEntity
  8
2
  6
Continuous
 62
     1
100
AcDbLine
 10
1750.540583
 20
158.540408
 30
0.0
 11
1751.833971
 21
189.840409
 31
0.0
  0
ARC
  5
282
100
AcDbEntity
  8
2
  6
Continuous
 62
     1
100
AcDbCircle
 10
1957.325903
 20
155.240404
 30
0.0
 40
1.000002
100
AcDbArc
 50
-84.292709
 51
-0.010617
  0
LINE
  5
283
100
AcDbEntity
  8
2
  6
Continuous
 62
     1
100
AcDbLine
 10
1958.225902
 20
158.540408
 30
0.0
 11
1958.3259
 21
155.240404
 31
0.0
  0
ARC
  5
284
100
AcDbEntity
  8
2
  6
Continuous
 62
     1
100
AcDbCircle
 10
1957.725898
 20
152.040408
 30
0.0
 40
2.199999
100
AcDbArc
 50
97.7466
 51
-90.022287
  0
LINE
  5
285
100
AcDbEntity
  8
2
  6
Continuous
 62
     1
100
AcDbLine
 10
1958.225902
 20
158.540408
 30
0.0
 11
2078.546471
 21
158.540408
 31
0.0
  0
LINE
  5
286
100
AcDbEntity
  8
2
  6
Continuous
 62
     1
100
AcDbLine
 10
1957.725898
 20
154.14041
 30
0.0
 11
2078.546471
 21
154.14041
 31
0.0
  0
LINE
  5
287
100
AcDbEntity
  8
2
  6
Continuous
 62
     1
100
AcDbLine
 10
1957.725898
 20
152.040408
 30
0.0
 11
2078.546471
 21
152.040408
 31
0.0
  0
LINE
  5
288
100
AcDbEntity
  8
2
  6
Continuous
 62
     1
100
AcDbLine
 10
1957.725898
 20
149.840409
 30
0.0
 11
2078.546471
 21
149.840409
 31
0.0
  0
ARC
  5
289
100
AcDbEntity
  8
2
  6
Continuous
 62
     1
100
AcDbCircle
 10
2199.767039
 20
155.240404
 30
0.0
 40
1.000002
100
AcDbArc
 50
-179.989383
 51
-95.707291
  0
LINE
  5
28A
100
AcDbEntity
  8
2
  6
Continuous
 62
     1
100
AcDbLine
 10
2198.86704
 20
158.540408
 30
0.0
 11
2198.767042
 21
155.240404
 31
0.0
  0
ARC
  5
28B
100
AcDbEntity
  8
2
  6
Continuous
 62
     1
100
AcDbCircle
 10
2199.367043
 20
152.040408
 30
0.0
 40
2.199999
100
AcDbArc
 50
-89.977713
 51
82.2534
  0
LINE
  5
28C
100
AcDbEntity
  8
2
  6
Continuous
 62
     1
100
AcDbLine
 10
2198.86704
 20
158.540408
 30
0.0
 11
2078.546471
 21
158.540408
 31
0.0
  0
LINE
  5
28D
100
AcDbEntity
  8
2
  6
Continuous
 62
     1
100
AcDbLine
 10
2199.367043
 20
154.14041
 30
0.0
 11
2078.546471
 21
154.14041
 31
0.0
  0
LINE
  5
28E
100
AcDbEntity
  8
2
  6
Continuous
 62
     1
100
AcDbLine
 10
2199.367043
 20
152.040408
 30
0.0
 11
2078.546471
 21
152.040408
 31
0.0
  0
LINE
  5
28F
100
AcDbEntity
  8
2
  6
Continuous
 62
     1
100
AcDbLine
 10
2199.367043
 20
149.840409
 30
0.0
 11
2078.546471
 21
149.840409
 31
0.0
  0
LINE
  5
290
100
AcDbEntity
  8
2
  6
Continuous
 62
     1
100
AcDbLine
 10
1959.052345
 20
158.540408
 30
0.0
 11
1957.758956
 21
189.840409
 31
0.0
  0
LINE
  5
291
100
AcDbEntity
  8
2
  6
Continuous
 62
     1
100
AcDbLine
 10
2198.040597
 20
158.540408
 30
0.0
 11
2199.333986
 21
189.840409
 31
0.0
  0
ARC
  5
292
100
AcDbEntity
  8
2
  6
Continuous
 62
     1
100
AcDbCircle
 10
2404.825917
 20
155.240404
 30
0.0
 40
1.000002
100
AcDbArc
 50
-84.292709
 51
-0.010617
  0
LINE
  5
293
100
AcDbEntity
  8
2
  6
Continuous
 62
     1
100
AcDbLine
 10
2405.725917
 20
158.540408
 30
0.0
 11
2405.825914
 21
155.240404
 31
0.0
  0
ARC
  5
294
100
AcDbEntity
  8
2
  6
Continuous
 62
     1
100
AcDbCircle
 10
2405.225913
 20
152.040408
 30
0.0
 40
2.199999
100
AcDbArc
 50
97.7466
 51
-90.022287
  0
LINE
  5
295
100
AcDbEntity
  8
2
  6
Continuous
 62
     1
100
AcDbLine
 10
2405.725917
 20
158.540408
 30
0.0
 11
2526.046485
 21
158.540408
 31
0.0
  0
LINE
  5
296
100
AcDbEntity
  8
2
  6
Continuous
 62
     1
100
AcDbLine
 10
2405.225913
 20
154.14041
 30
0.0
 11
2526.046485
 21
154.14041
 31
0.0
  0
LINE
  5
297
100
AcDbEntity
  8
2
  6
Continuous
 62
     1
100
AcDbLine
 10
2405.225913
 20
152.040408
 30
0.0
 11
2526.046485
 21
152.040408
 31
0.0
  0
LINE
  5
298
100
AcDbEntity
  8
2
  6
Continuous
 62
     1
100
AcDbLine
 10
2405.225913
 20
149.840409
 30
0.0
 11
2526.046485
 21
149.840409
 31
0.0
  0
ARC
  5
299
100
AcDbEntity
  8
2
  6
Continuous
 62
     1
100
AcDbCircle
 10
2647.267053
 20
155.240404
 30
0.0
 40
1.000002
100
AcDbArc
 50
-179.989383
 51
-95.707291
  0
LINE
  5
29A
100
AcDbEntity
  8
2
  6
Continuous
 62
     1
100
AcDbLine
 10
2646.367054
 20
158.540408
 30
0.0
 11
2646.267057
 21
155.240404
 31
0.0
  0
ARC
  5
29B
100
AcDbEntity
  8
2
  6
Continuous
 62
     1
100
AcDbCircle
 10
2646.867058
 20
152.040408
 30
0.0
 40
2.199999
100
AcDbArc
 50
-89.977713
 51
82.2534
  0
LINE
  5
29C
100
AcDbEntity
  8
2
  6
Continuous
 62
     1
100
AcDbLine
 10
2646.367054
 20
158.540408
 30
0.0
 11
2526.046485
 21
158.540408
 31
0.0
  0
LINE
  5
29D
100
AcDbEntity
  8
2
  6
Continuous
 62
     1
100
AcDbLine
 10
2646.867058
 20
154.14041
 30
0.0
 11
2526.046485
 21
154.14041
 31
0.0
  0
LINE
  5
29E
100
AcDbEntity
  8
2
  6
Continuous
 62
     1
100
AcDbLine
 10
2646.867058
 20
152.040408
 30
0.0
 11
2526.046485
 21
152.040408
 31
0.0
  0
LINE
  5
29F
100
AcDbEntity
  8
2
  6
Continuous
 62
     1
100
AcDbLine
 10
2646.867058
 20
149.840409
 30
0.0
 11
2526.046485
 21
149.840409
 31
0.0
  0
LINE
  5
2A0
100
AcDbEntity
  8
2
  6
Continuous
 62
     1
100
AcDbLine
 10
2406.552359
 20
158.540408
 30
0.0
 11
2405.258971
 21
189.840409
 31
0.0
  0
LINE
  5
2A1
100
AcDbEntity
  8
2
  6
Continuous
 62
     1
100
AcDbLine
 10
2645.540611
 20
158.540408
 30
0.0
 11
2646.834
 21
189.840409
 31
0.0
  0
ARC
  5
2A2
100
AcDbEntity
  8
2
  6
Continuous
 62
     1
100
AcDbCircle
 10
2852.325932
 20
155.240404
 30
0.0
 40
1.000002
100
AcDbArc
 50
-84.292709
 51
-0.010617
  0
LINE
  5
2A3
100
AcDbEntity
  8
2
  6
Continuous
 62
     1
100
AcDbLine
 10
2853.225931
 20
158.540408
 30
0.0
 11
2853.325928
 21
155.240404
 31
0.0
  0
ARC
  5
2A4
100
AcDbEntity
  8
2
  6
Continuous
 62
     1
100
AcDbCircle
 10
2852.725927
 20
152.040408
 30
0.0
 40
2.199999
100
AcDbArc
 50
97.7466
 51
-90.022287
  0
LINE
  5
2A5
100
AcDbEntity
  8
2
  6
Continuous
 62
     1
100
AcDbLine
 10
2853.225931
 20
158.540408
 30
0.0
 11
2973.5465
 21
158.540408
 31
0.0
  0
LINE
  5
2A6
100
AcDbEntity
  8
2
  6
Continuous
 62
     1
100
AcDbLine
 10
2852.725927
 20
154.14041
 30
0.0
 11
2973.5465
 21
154.14041
 31
0.0
  0
LINE
  5
2A7
100
AcDbEntity
  8
2
  6
Continuous
 62
     1
100
AcDbLine
 10
2852.725927
 20
152.040408
 30
0.0
 11
2973.5465
 21
152.040408
 31
0.0
  0
LINE
  5
2A8
100
AcDbEntity
  8
2
  6
Continuous
 62
     1
100
AcDbLine
 10
2852.725927
 20
149.840409
 30
0.0
 11
2973.5465
 21
149.840409
 31
0.0
  0
ARC
  5
2A9
100
AcDbEntity
  8
2
  6
Continuous
 62
     1
100
AcDbCircle
 10
3094.767068
 20
155.240404
 30
0.0
 40
1.000002
100
AcDbArc
 50
-179.989383
 51
-95.707291
  0
LINE
  5
2AA
100
AcDbEntity
  8
2
  6
Continuous
 62
     1
100
AcDbLine
 10
3093.867069
 20
158.540408
 30
0.0
 11
3093.767071
 21
155.240404
 31
0.0
  0
ARC
  5
2AB
100
AcDbEntity
  8
2
  6
Continuous
 62
     1
100
AcDbCircle
 10
3094.367072
 20
152.040408
 30
0.0
 40
2.199999
100
AcDbArc
 50
-89.977713
 51
82.2534
  0
LINE
  5
2AC
100
AcDbEntity
  8
2
  6
Continuous
 62
     1
100
AcDbLine
 10
3093.867069
 20
158.540408
 30
0.0
 11
2973.5465
 21
158.540408
 31
0.0
  0
LINE
  5
2AD
100
AcDbEntity
  8
2
  6
Continuous
 62
     1
100
AcDbLine
 10
3094.367072
 20
154.14041
 30
0.0
 11
2973.5465
 21
154.14041
 31
0.0
  0
LINE
  5
2AE
100
AcDbEntity
  8
2
  6
Continuous
 62
     1
100
AcDbLine
 10
3094.367072
 20
152.040408
 30
0.0
 11
2973.5465
 21
152.040408
 31
0.0
  0
LINE
  5
2AF
100
AcDbEntity
  8
2
  6
Continuous
 62
     1
100
AcDbLine
 10
3094.367072
 20
149.840409
 30
0.0
 11
2973.5465
 21
149.840409
 31
0.0
  0
LINE
  5
2B0
100
AcDbEntity
  8
2
  6
Continuous
 62
     1
100
AcDbLine
 10
2854.052374
 20
158.540408
 30
0.0
 11
2852.758985
 21
189.840409
 31
0.0
  0
LINE
  5
2B1
100
AcDbEntity
  8
2
  6
Continuous
 62
     1
100
AcDbLine
 10
3093.040626
 20
158.540408
 30
0.0
 11
3094.334014
 21
189.840409
 31
0.0
  0
LINE
  5
2B2
100
AcDbEntity
  8
2
  6
Continuous
 62
     1
100
AcDbLine
 10
543.54642
 20
444.640411
 30
0.0
 11
543.54642
 21
464.640409
 31
0.0
  0
LINE
  5
2B3
100
AcDbEntity
  8
2
  6
CENTER
 62
     1
100
AcDbLine
 10
563.546418
 20
477.440408
 30
0.0
 11
563.546418
 21
428.64041
 31
0.0
  0
LINE
  5
2B4
100
AcDbEntity
  8
2
  6
CENTER
 62
     1
100
AcDbLine
 10
563.546418
 20
432.34041
 30
0.0
 11
563.546418
 21
477.440408
 31
0.0
  0
LINE
  5
2B5
100
AcDbEntity
  8
2
  6
Continuous
 62
     1
100
AcDbLine
 10
543.54642
 20
464.640409
 30
0.0
 11
736.046428
 21
464.640409
 31
0.0
  0
LINE
  5
2B6
100
AcDbEntity
  8
2
  6
Continuous
 62
     1
100
AcDbLine
 10
736.046428
 20
444.640411
 30
0.0
 11
543.54642
 21
444.640411
 31
0.0
  0
ARC
  5
2B7
100
AcDbEntity
  8
2
  6
Continuous
 62
     1
100
AcDbCircle
 10
591.546429
 20
428.64041
 30
0.0
 40
4.500001
100
AcDbArc
 50
147.70852
 51
-144.911644
  0
ARC
  5
2B8
100
AcDbEntity
  8
2
  6
Continuous
 62
     1
100
AcDbCircle
 10
594.746424
 20
412.640409
 30
0.0
 40
3.000001
100
AcDbArc
 50
90.01167
 51
-90.022287
  0
LINE
  5
2B9
100
AcDbEntity
  8
2
  6
Continuous
 62
     1
100
AcDbLine
 10
596.246425
 20
415.640405
 30
0.0
 11
587.946421
 21
426.140408
 31
0.0
  0
LINE
  5
2BA
100
AcDbEntity
  8
2
  6
Continuous
 62
     1
100
AcDbLine
 10
587.946421
 20
399.140406
 30
0.0
 11
596.246425
 21
409.640409
 31
0.0
  0
ARC
  5
2BB
100
AcDbEntity
  8
2
  6
Continuous
 62
     1
100
AcDbCircle
 10
591.546429
 20
396.640403
 30
0.0
 40
4.500001
100
AcDbArc
 50
147.70852
 51
-144.911644
  0
LINE
  5
2BC
100
AcDbEntity
  8
2
  6
Continuous
 62
     1
100
AcDbLine
 10
596.246425
 20
383.640409
 30
0.0
 11
587.946421
 21
394.140406
 31
0.0
  0
LINE
  5
2BD
100
AcDbEntity
  8
2
  6
Continuous
 62
     1
100
AcDbLine
 10
587.946421
 20
399.140406
 30
0.0
 11
596.246425
 21
409.640409
 31
0.0
  0
LINE
  5
2BE
100
AcDbEntity
  8
2
  6
Continuous
 62
     1
100
AcDbLine
 10
598.594311
 20
444.640411
 30
0.0
 11
587.946421
 21
431.140407
 31
0.0
  0
LINE
  5
2BF
100
AcDbEntity
  8
2
  6
Continuous
 62
     1
100
AcDbLine
 10
591.746424
 20
428.64041
 30
0.0
 11
736.046428
 21
428.64041
 31
0.0
  0
LINE
  5
2C0
100
AcDbEntity
  8
2
  6
Continuous
 62
     1
100
AcDbLine
 10
594.746424
 20
415.640405
 30
0.0
 11
736.046428
 21
415.640405
 31
0.0
  0
LINE
  5
2C1
100
AcDbEntity
  8
2
  6
CENTER
 62
     1
100
AcDbLine
 10
588.546422
 20
412.640409
 30
0.0
 11
736.046428
 21
412.640409
 31
0.0
  0
LINE
  5
2C2
100
AcDbEntity
  8
2
  6
Continuous
 62
     1
100
AcDbLine
 10
594.746424
 20
409.640409
 30
0.0
 11
736.046428
 21
409.640409
 31
0.0
  0
LINE
  5
2C3
100
AcDbEntity
  8
2
  6
Continuous
 62
     1
100
AcDbLine
 10
591.746424
 20
396.640403
 30
0.0
 11
736.046428
 21
396.640403
 31
0.0
  0
LINE
  5
2C4
100
AcDbEntity
  8
2
  6
Continuous
 62
     1
100
AcDbLine
 10
576.046428
 20
464.640409
 30
0.0
 11
576.046428
 21
469.840409
 31
0.0
  0
LINE
  5
2C5
100
AcDbEntity
  8
2
  6
Continuous
 62
     1
100
AcDbLine
 10
576.046428
 20
469.840409
 30
0.0
 11
736.046428
 21
469.840409
 31
0.0
  0
LINE
  5
2C6
100
AcDbEntity
  8
2
  6
Continuous
 62
     1
100
AcDbLine
 10
576.046428
 20
466.840408
 30
0.0
 11
736.046428
 21
466.840408
 31
0.0
  0
LINE
  5
2C7
100
AcDbEntity
  8
2
  6
Continuous
 62
     1
100
AcDbLine
 10
576.046428
 20
466.040406
 30
0.0
 11
736.046428
 21
466.040406
 31
0.0
  0
LINE
  5
2C8
100
AcDbEntity
  8
2
  6
Continuous
 62
     1
100
AcDbLine
 10
928.546435
 20
444.640411
 30
0.0
 11
928.546435
 21
464.640409
 31
0.0
  0
LINE
  5
2C9
100
AcDbEntity
  8
2
  6
CENTER
 62
     1
100
AcDbLine
 10
908.546437
 20
477.440408
 30
0.0
 11
908.546437
 21
428.64041
 31
0.0
  0
LINE
  5
2CA
100
AcDbEntity
  8
2
  6
CENTER
 62
     1
100
AcDbLine
 10
908.546437
 20
432.34041
 30
0.0
 11
908.546437
 21
477.440408
 31
0.0
  0
LINE
  5
2CB
100
AcDbEntity
  8
2
  6
Continuous
 62
     1
100
AcDbLine
 10
928.546435
 20
464.640409
 30
0.0
 11
736.046428
 21
464.640409
 31
0.0
  0
LINE
  5
2CC
100
AcDbEntity
  8
2
  6
Continuous
 62
     1
100
AcDbLine
 10
736.046428
 20
444.640411
 30
0.0
 11
928.546435
 21
444.640411
 31
0.0
  0
ARC
  5
2CD
100
AcDbEntity
  8
2
  6
Continuous
 62
     1
100
AcDbCircle
 10
880.546426
 20
428.64041
 30
0.0
 40
4.500001
100
AcDbArc
 50
-35.088356
 51
32.29148
  0
ARC
  5
2CE
100
AcDbEntity
  8
2
  6
Continuous
 62
     1
100
AcDbCircle
 10
877.346431
 20
412.640409
 30
0.0
 40
3.000001
100
AcDbArc
 50
-89.977713
 51
89.98833
  0
LINE
  5
2CF
100
AcDbEntity
  8
2
  6
Continuous
 62
     1
100
AcDbLine
 10
875.84643
 20
415.640405
 30
0.0
 11
884.146434
 21
426.140408
 31
0.0
  0
LINE
  5
2D0
100
AcDbEntity
  8
2
  6
Continuous
 62
     1
100
AcDbLine
 10
884.146434
 20
399.140406
 30
0.0
 11
875.84643
 21
409.640409
 31
0.0
  0
ARC
  5
2D1
100
AcDbEntity
  8
2
  6
Continuous
 62
     1
100
AcDbCircle
 10
880.546426
 20
396.640403
 30
0.0
 40
4.500001
100
AcDbArc
 50
-35.088356
 51
32.29148
  0
LINE
  5
2D2
100
AcDbEntity
  8
2
  6
Continuous
 62
     1
100
AcDbLine
 10
875.84643
 20
383.640409
 30
0.0
 11
884.146434
 21
394.140406
 31
0.0
  0
LINE
  5
2D3
100
AcDbEntity
  8
2
  6
Continuous
 62
     1
100
AcDbLine
 10
884.146434
 20
399.140406
 30
0.0
 11
875.84643
 21
409.640409
 31
0.0
  0
LINE
  5
2D4
100
AcDbEntity
  8
2
  6
Continuous
 62
     1
100
AcDbLine
 10
873.498544
 20
444.640411
 30
0.0
 11
884.146434
 21
431.140407
 31
0.0
  0
LINE
  5
2D5
100
AcDbEntity
  8
2
  6
Continuous
 62
     1
100
AcDbLine
 10
880.346431
 20
428.64041
 30
0.0
 11
736.046428
 21
428.64041
 31
0.0
  0
LINE
  5
2D6
100
AcDbEntity
  8
2
  6
Continuous
 62
     1
100
AcDbLine
 10
877.346431
 20
415.640405
 30
0.0
 11
736.046428
 21
415.640405
 31
0.0
  0
LINE
  5
2D7
100
AcDbEntity
  8
2
  6
CENTER
 62
     1
100
AcDbLine
 10
883.546433
 20
412.640409
 30
0.0
 11
736.046428
 21
412.640409
 31
0.0
  0
LINE
  5
2D8
100
AcDbEntity
  8
2
  6
Continuous
 62
     1
100
AcDbLine
 10
877.346431
 20
409.640409
 30
0.0
 11
736.046428
 21
409.640409
 31
0.0
  0
LINE
  5
2D9
100
AcDbEntity
  8
2
  6
Continuous
 62
     1
100
AcDbLine
 10
880.346431
 20
396.640403
 30
0.0
 11
736.046428
 21
396.640403
 31
0.0
  0
LINE
  5
2DA
100
AcDbEntity
  8
2
  6
Continuous
 62
     1
100
AcDbLine
 10
896.046428
 20
464.640409
 30
0.0
 11
896.046428
 21
469.840409
 31
0.0
  0
LINE
  5
2DB
100
AcDbEntity
  8
2
  6
Continuous
 62
     1
100
AcDbLine
 10
896.046428
 20
469.840409
 30
0.0
 11
736.046428
 21
469.840409
 31
0.0
  0
LINE
  5
2DC
100
AcDbEntity
  8
2
  6
Continuous
 62
     1
100
AcDbLine
 10
896.046428
 20
466.840408
 30
0.0
 11
736.046428
 21
466.840408
 31
0.0
  0
LINE
  5
2DD
100
AcDbEntity
  8
2
  6
Continuous
 62
     1
100
AcDbLine
 10
896.046428
 20
466.040406
 30
0.0
 11
736.046428
 21
466.040406
 31
0.0
  0
LINE
  5
2DE
100
AcDbEntity
  8
2
  6
CENTER
 62
     1
100
AcDbLine
 10
587.046428
 20
264.640401
 30
0.0
 11
587.046428
 21
397.780093
 31
0.0
  0
LINE
  5
2DF
100
AcDbEntity
  8
2
  6
CENTER
 62
     1
100
AcDbLine
 10
885.046428
 20
264.640401
 30
0.0
 11
885.046428
 21
397.780093
 31
0.0
  0
LINE
  5
2E0
100
AcDbEntity
  8
2
  6
CENTER
 62
     1
100
AcDbLine
 10
496.681103
 20
778.240409
 30
0.0
 11
975.411752
 21
778.240409
 31
0.0
  0
LINE
  5
2E1
100
AcDbEntity
  8
2
  6
CENTER
 62
     1
100
AcDbLine
 10
736.046428
 20
1017.605734
 30
0.0
 11
736.046428
 21
538.875084
 31
0.0
  0
CIRCLE
  5
2E2
100
AcDbEntity
  8
2
  6
PHANTOM
 62
     1
100
AcDbCircle
 10
736.046428
 20
778.240409
 30
0.0
 40
172.5
  0
CIRCLE
  5
2E3
100
AcDbEntity
  8
2
  6
Continuous
 62
     1
100
AcDbCircle
 10
736.046428
 20
778.240409
 30
0.0
 40
192.5
  0
CIRCLE
  5
2E4
100
AcDbEntity
  8
2
  6
Continuous
 62
     1
100
AcDbCircle
 10
736.046428
 20
778.240409
 30
0.0
 40
160.0
  0
CIRCLE
  5
2E5
100
AcDbEntity
  8
2
  6
Continuous
 62
     1
100
AcDbCircle
 10
736.046428
 20
778.240409
 30
0.0
 40
133.5
  0
CIRCLE
  5
2E6
100
AcDbEntity
  8
2
  6
HIDDEN
 62
     1
100
AcDbCircle
 10
736.046428
 20
778.240409
 30
0.0
 40
135.0
  0
LINE
  5
2E7
100
AcDbEntity
  8
2
  6
CENTER
 62
     1
100
AcDbLine
 10
901.994613
 20
874.050639
 30
0.0
 11
868.877006
 21
854.930179
 31
0.0
  0
CIRCLE
  5
2E8
100
AcDbEntity
  8
2
  6
Continuous
 62
     1
100
AcDbCircle
 10
885.43581
 20
864.490409
 30
0.0
 40
11.5
  0
CIRCLE
  5
2E9
100
AcDbEntity
  8
2
  6
Continuous
 62
     1
100
AcDbCircle
 10
908.546428
 20
778.240409
 30
0.0
 40
11.5
  0
LINE
  5
2EA
100
AcDbEntity
  8
2
  6
CENTER
 62
     1
100
AcDbLine
 10
831.856657
 20
944.188595
 30
0.0
 11
812.736198
 21
911.070987
 31
0.0
  0
CIRCLE
  5
2EB
100
AcDbEntity
  8
2
  6
Continuous
 62
     1
100
AcDbCircle
 10
822.296428
 20
927.629791
 30
0.0
 40
11.5
  0
CIRCLE
  5
2EC
100
AcDbEntity
  8
2
  6
Continuous
 62
     1
100
AcDbCircle
 10
736.046428
 20
950.740409
 30
0.0
 40
11.5
  0
LINE
  5
2ED
100
AcDbEntity
  8
2
  6
CENTER
 62
     1
100
AcDbLine
 10
570.098243
 20
874.050639
 30
0.0
 11
603.21585
 21
854.930179
 31
0.0
  0
CIRCLE
  5
2EE
100
AcDbEntity
  8
2
  6
Continuous
 62
     1
100
AcDbCircle
 10
586.657046
 20
864.490409
 30
0.0
 40
11.5
  0
CIRCLE
  5
2EF
100
AcDbEntity
  8
2
  6
Continuous
 62
     1
100
AcDbCircle
 10
563.546429
 20
778.240409
 30
0.0
 40
11.5
  0
LINE
  5
2F0
100
AcDbEntity
  8
2
  6
CENTER
 62
     1
100
AcDbLine
 10
640.236199
 20
944.188595
 30
0.0
 11
659.356658
 21
911.070987
 31
0.0
  0
CIRCLE
  5
2F1
100
AcDbEntity
  8
2
  6
Continuous
 62
     1
100
AcDbCircle
 10
649.796428
 20
927.629791
 30
0.0
 40
11.5
  0
LINE
  5
2F2
100
AcDbEntity
  8
2
  6
CENTER
 62
     1
100
AcDbLine
 10
901.994613
 20
682.430179
 30
0.0
 11
868.877006
 21
701.550639
 31
0.0
  0
CIRCLE
  5
2F3
100
AcDbEntity
  8
2
  6
Continuous
 62
     1
100
AcDbCircle
 10
885.43581
 20
691.990409
 30
0.0
 40
11.5
  0
LINE
  5
2F4
100
AcDbEntity
  8
2
  6
CENTER
 62
     1
100
AcDbLine
 10
831.856657
 20
612.292223
 30
0.0
 11
812.736198
 21
645.409831
 31
0.0
  0
CIRCLE
  5
2F5
100
AcDbEntity
  8
2
  6
Continuous
 62
     1
100
AcDbCircle
 10
822.296428
 20
628.851027
 30
0.0
 40
11.5
  0
CIRCLE
  5
2F6
100
AcDbEntity
  8
2
  6
Continuous
 62
     1
100
AcDbCircle
 10
736.046428
 20
605.740409
 30
0.0
 40
11.5
  0
LINE
  5
2F7
100
AcDbEntity
  8
2
  6
CENTER
 62
     1
100
AcDbLine
 10
570.098243
 20
682.430179
 30
0.0
 11
603.21585
 21
701.550639
 31
0.0
  0
CIRCLE
  5
2F8
100
AcDbEntity
  8
2
  6
Continuous
 62
     1
100
AcDbCircle
 10
586.657046
 20
691.990409
 30
0.0
 40
11.5
  0
LINE
  5
2F9
100
AcDbEntity
  8
2
  6
CENTER
 62
     1
100
AcDbLine
 10
640.236199
 20
612.292223
 30
0.0
 11
659.356658
 21
645.409831
 31
0.0
  0
CIRCLE
  5
2FA
100
AcDbEntity
  8
2
  6
Continuous
 62
     1
100
AcDbCircle
 10
649.796428
 20
628.851027
 30
0.0
 40
11.5
  0
LINE
  5
2FB
100
AcDbEntity
  8
2
  6
CENTER
 62
     1
100
AcDbLine
 10
736.046428
 20
493.308589
 30
0.0
 11
736.046428
 21
128.546234
 31
0.0
  0
LINE
  5
2FC
100
AcDbEntity
  8
2
  6
Continuous
 62
     1
100
AcDbLine
 10
1127.648263
 20
500.60121
 30
0.0
 11
1127.54826
 21
500.60121
 31
0.0
  0
LINE
  5
2FD
100
AcDbEntity
  8
2
  6
CENTER
 62
     1
100
AcDbLine
 10
944.181117
 20
847.079261
 30
0.0
 11
1422.911767
 21
847.079261
 31
0.0
  0
LINE
  5
2FE
100
AcDbEntity
  8
2
  6
CENTER
 62
     1
100
AcDbLine
 10
1183.546442
 20
1086.444585
 30
0.0
 11
1183.546442
 21
607.713936
 31
0.0
  0
CIRCLE
  5
2FF
100
AcDbEntity
  8
2
  6
PHANTOM
 62
     1
100
AcDbCircle
 10
1183.546442
 20
847.079261
 30
0.0
 40
172.5
  0
CIRCLE
  5
300
100
AcDbEntity
  8
2
  6
Continuous
 62
     1
100
AcDbCircle
 10
1183.546442
 20
847.079261
 30
0.0
 40
192.5
  0
CIRCLE
  5
301
100
AcDbEntity
  8
2
  6
Continuous
 62
     1
100
AcDbCircle
 10
1183.546442
 20
847.079261
 30
0.0
 40
160.0
  0
CIRCLE
  5
302
100
AcDbEntity
  8
2
  6
Continuous
 62
     1
100
AcDbCircle
 10
1183.546442
 20
847.079261
 30
0.0
 40
133.5
  0
CIRCLE
  5
303
100
AcDbEntity
  8
2
  6
HIDDEN
 62
     1
100
AcDbCircle
 10
1183.546442
 20
847.079261
 30
0.0
 40
135.0
  0
LINE
  5
304
100
AcDbEntity
  8
2
  6
CENTER
 62
     1
100
AcDbLine
 10
1349.494628
 20
942.889491
 30
0.0
 11
1316.37702
 21
923.769031
 31
0.0
  0
CIRCLE
  5
305
100
AcDbEntity
  8
2
  6
Continuous
 62
     1
100
AcDbCircle
 10
1332.935824
 20
933.32926
 30
0.0
 40
11.5
  0
CIRCLE
  5
306
100
AcDbEntity
  8
2
  6
Continuous
 62
     1
100
AcDbCircle
 10
1356.046442
 20
847.079261
 30
0.0
 40
11.5
  0
LINE
  5
307
100
AcDbEntity
  8
2
  6
CENTER
 62
     1
100
AcDbLine
 10
1279.356672
 20
1013.027446
 30
0.0
 11
1260.236212
 21
979.909839
 31
0.0
  0
CIRCLE
  5
308
100
AcDbEntity
  8
2
  6
Continuous
 62
     1
100
AcDbCircle
 10
1269.796442
 20
996.468642
 30
0.0
 40
11.5
  0
CIRCLE
  5
309
100
AcDbEntity
  8
2
  6
Continuous
 62
     1
100
AcDbCircle
 10
1183.546442
 20
1019.579261
 30
0.0
 40
11.5
  0
LINE
  5
30A
100
AcDbEntity
  8
2
  6
CENTER
 62
     1
100
AcDbLine
 10
1017.598257
 20
942.889491
 30
0.0
 11
1050.715865
 21
923.769031
 31
0.0
  0
CIRCLE
  5
30B
100
AcDbEntity
  8
2
  6
Continuous
 62
     1
100
AcDbCircle
 10
1034.157061
 20
933.32926
 30
0.0
 40
11.5
  0
CIRCLE
  5
30C
100
AcDbEntity
  8
2
  6
Continuous
 62
     1
100
AcDbCircle
 10
1011.046443
 20
847.079261
 30
0.0
 40
11.5
  0
LINE
  5
30D
100
AcDbEntity
  8
2
  6
CENTER
 62
     1
100
AcDbLine
 10
1087.736213
 20
1013.027446
 30
0.0
 11
1106.856673
 21
979.909839
 31
0.0
  0
CIRCLE
  5
30E
100
AcDbEntity
  8
2
  6
Continuous
 62
     1
100
AcDbCircle
 10
1097.296443
 20
996.468642
 30
0.0
 40
11.5
  0
LINE
  5
30F
100
AcDbEntity
  8
2
  6
CENTER
 62
     1
100
AcDbLine
 10
1349.494628
 20
751.269031
 30
0.0
 11
1316.37702
 21
770.38949
 31
0.0
  0
CIRCLE
  5
310
100
AcDbEntity
  8
2
  6
Continuous
 62
     1
100
AcDbCircle
 10
1332.935824
 20
760.829261
 30
0.0
 40
11.5
  0
LINE
  5
311
100
AcDbEntity
  8
2
  6
CENTER
 62
     1
100
AcDbLine
 10
1279.356672
 20
681.131075
 30
0.0
 11
1260.236212
 21
714.248682
 31
0.0
  0
CIRCLE
  5
312
100
AcDbEntity
  8
2
  6
Continuous
 62
     1
100
AcDbCircle
 10
1269.796442
 20
697.689879
 30
0.0
 40
11.5
  0
CIRCLE
  5
313
100
AcDbEntity
  8
2
  6
Continuous
 62
     1
100
AcDbCircle
 10
1183.546442
 20
674.579261
 30
0.0
 40
11.5
  0
LINE
  5
314
100
AcDbEntity
  8
2
  6
CENTER
 62
     1
100
AcDbLine
 10
1017.598257
 20
751.269031
 30
0.0
 11
1050.715865
 21
770.38949
 31
0.0
  0
CIRCLE
  5
315
100
AcDbEntity
  8
2
  6
Continuous
 62
     1
100
AcDbCircle
 10
1034.157061
 20
760.829261
 30
0.0
 40
11.5
  0
LINE
  5
316
100
AcDbEntity
  8
2
  6
CENTER
 62
     1
100
AcDbLine
 10
1087.736213
 20
681.131075
 30
0.0
 11
1106.856673
 21
714.248682
 31
0.0
  0
CIRCLE
  5
317
100
AcDbEntity
  8
2
  6
Continuous
 62
     1
100
AcDbCircle
 10
1097.296443
 20
697.689879
 30
0.0
 40
11.5
  0
LINE
  5
318
100
AcDbEntity
  8
2
  6
Continuous
 62
     1
100
AcDbLine
 10
991.046435
 20
484.640411
 30
0.0
 11
991.046435
 21
504.640409
 31
0.0
  0
LINE
  5
319
100
AcDbEntity
  8
2
  6
CENTER
 62
     1
100
AcDbLine
 10
1011.046433
 20
517.440408
 30
0.0
 11
1011.046433
 21
468.64041
 31
0.0
  0
LINE
  5
31A
100
AcDbEntity
  8
2
  6
CENTER
 62
     1
100
AcDbLine
 10
1011.046433
 20
472.34041
 30
0.0
 11
1011.046433
 21
517.440408
 31
0.0
  0
LINE
  5
31B
100
AcDbEntity
  8
2
  6
Continuous
 62
     1
100
AcDbLine
 10
991.046435
 20
504.640409
 30
0.0
 11
1183.546442
 21
504.640409
 31
0.0
  0
LINE
  5
31C
100
AcDbEntity
  8
2
  6
Continuous
 62
     1
100
AcDbLine
 10
1183.546442
 20
484.640411
 30
0.0
 11
991.046435
 21
484.640411
 31
0.0
  0
ARC
  5
31D
100
AcDbEntity
  8
2
  6
Continuous
 62
     1
100
AcDbCircle
 10
1039.046443
 20
468.64041
 30
0.0
 40
4.500001
100
AcDbArc
 50
147.70852
 51
-144.911644
  0
ARC
  5
31E
100
AcDbEntity
  8
2
  6
Continuous
 62
     1
100
AcDbCircle
 10
1042.246439
 20
452.640409
 30
0.0
 40
3.000001
100
AcDbArc
 50
90.01167
 51
-90.022287
  0
LINE
  5
31F
100
AcDbEntity
  8
2
  6
Continuous
 62
     1
100
AcDbLine
 10
1043.746439
 20
455.640405
 30
0.0
 11
1035.446436
 21
466.140408
 31
0.0
  0
LINE
  5
320
100
AcDbEntity
  8
2
  6
Continuous
 62
     1
100
AcDbLine
 10
1035.446436
 20
439.140406
 30
0.0
 11
1043.746439
 21
449.640409
 31
0.0
  0
ARC
  5
321
100
AcDbEntity
  8
2
  6
Continuous
 62
     1
100
AcDbCircle
 10
1039.046443
 20
436.640403
 30
0.0
 40
4.500001
100
AcDbArc
 50
147.70852
 51
-144.911644
  0
LINE
  5
322
100
AcDbEntity
  8
2
  6
Continuous
 62
     1
100
AcDbLine
 10
1043.746439
 20
423.640409
 30
0.0
 11
1035.446436
 21
434.140406
 31
0.0
  0
LINE
  5
323
100
AcDbEntity
  8
2
  6
Continuous
 62
     1
100
AcDbLine
 10
1035.446436
 20
439.140406
 30
0.0
 11
1043.746439
 21
449.640409
 31
0.0
  0
LINE
  5
324
100
AcDbEntity
  8
2
  6
Continuous
 62
     1
100
AcDbLine
 10
1046.094326
 20
484.640411
 30
0.0
 11
1035.446436
 21
471.140407
 31
0.0
  0
LINE
  5
325
100
AcDbEntity
  8
2
  6
Continuous
 62
     1
100
AcDbLine
 10
1039.246438
 20
468.64041
 30
0.0
 11
1183.546442
 21
468.64041
 31
0.0
  0
LINE
  5
326
100
AcDbEntity
  8
2
  6
Continuous
 62
     1
100
AcDbLine
 10
1042.246439
 20
455.640405
 30
0.0
 11
1183.546442
 21
455.640405
 31
0.0
  0
LINE
  5
327
100
AcDbEntity
  8
2
  6
CENTER
 62
     1
100
AcDbLine
 10
1036.046437
 20
452.640409
 30
0.0
 11
1183.546442
 21
452.640409
 31
0.0
  0
LINE
  5
328
100
AcDbEntity
  8
2
  6
Continuous
 62
     1
100
AcDbLine
 10
1042.246439
 20
449.640409
 30
0.0
 11
1183.546442
 21
449.640409
 31
0.0
  0
LINE
  5
329
100
AcDbEntity
  8
2
  6
Continuous
 62
     1
100
AcDbLine
 10
1039.246438
 20
436.640403
 30
0.0
 11
1183.546442
 21
436.640403
 31
0.0
  0
LINE
  5
32A
100
AcDbEntity
  8
2
  6
Continuous
 62
     1
100
AcDbLine
 10
1023.546442
 20
504.640409
 30
0.0
 11
1023.546442
 21
509.840409
 31
0.0
  0
LINE
  5
32B
100
AcDbEntity
  8
2
  6
Continuous
 62
     1
100
AcDbLine
 10
1023.546442
 20
509.840409
 30
0.0
 11
1183.546442
 21
509.840409
 31
0.0
  0
LINE
  5
32C
100
AcDbEntity
  8
2
  6
Continuous
 62
     1
100
AcDbLine
 10
1023.546442
 20
506.840408
 30
0.0
 11
1183.546442
 21
506.840408
 31
0.0
  0
LINE
  5
32D
100
AcDbEntity
  8
2
  6
Continuous
 62
     1
100
AcDbLine
 10
1023.546442
 20
506.040406
 30
0.0
 11
1183.546442
 21
506.040406
 31
0.0
  0
LINE
  5
32E
100
AcDbEntity
  8
2
  6
Continuous
 62
     1
100
AcDbLine
 10
1376.046449
 20
484.640411
 30
0.0
 11
1376.046449
 21
504.640409
 31
0.0
  0
LINE
  5
32F
100
AcDbEntity
  8
2
  6
CENTER
 62
     1
100
AcDbLine
 10
1356.046451
 20
517.440408
 30
0.0
 11
1356.046451
 21
468.64041
 31
0.0
  0
LINE
  5
330
100
AcDbEntity
  8
2
  6
CENTER
 62
     1
100
AcDbLine
 10
1356.046451
 20
472.34041
 30
0.0
 11
1356.046451
 21
517.440408
 31
0.0
  0
LINE
  5
331
100
AcDbEntity
  8
2
  6
Continuous
 62
     1
100
AcDbLine
 10
1376.046449
 20
504.640409
 30
0.0
 11
1183.546442
 21
504.640409
 31
0.0
  0
LINE
  5
332
100
AcDbEntity
  8
2
  6
Continuous
 62
     1
100
AcDbLine
 10
1183.546442
 20
484.640411
 30
0.0
 11
1376.046449
 21
484.640411
 31
0.0
  0
ARC
  5
333
100
AcDbEntity
  8
2
  6
Continuous
 62
     1
100
AcDbCircle
 10
1328.046441
 20
468.64041
 30
0.0
 40
4.500001
100
AcDbArc
 50
-35.088356
 51
32.29148
  0
ARC
  5
334
100
AcDbEntity
  8
2
  6
Continuous
 62
     1
100
AcDbCircle
 10
1324.846445
 20
452.640409
 30
0.0
 40
3.000001
100
AcDbArc
 50
-89.977713
 51
89.98833
  0
LINE
  5
335
100
AcDbEntity
  8
2
  6
Continuous
 62
     1
100
AcDbLine
 10
1323.346445
 20
455.640405
 30
0.0
 11
1331.646448
 21
466.140408
 31
0.0
  0
LINE
  5
336
100
AcDbEntity
  8
2
  6
Continuous
 62
     1
100
AcDbLine
 10
1331.646448
 20
439.140406
 30
0.0
 11
1323.346445
 21
449.640409
 31
0.0
  0
ARC
  5
337
100
AcDbEntity
  8
2
  6
Continuous
 62
     1
100
AcDbCircle
 10
1328.046441
 20
436.640403
 30
0.0
 40
4.500001
100
AcDbArc
 50
-35.088356
 51
32.29148
  0
LINE
  5
338
100
AcDbEntity
  8
2
  6
Continuous
 62
     1
100
AcDbLine
 10
1323.346445
 20
423.640409
 30
0.0
 11
1331.646448
 21
434.140406
 31
0.0
  0
LINE
  5
339
100
AcDbEntity
  8
2
  6
Continuous
 62
     1
100
AcDbLine
 10
1331.646448
 20
439.140406
 30
0.0
 11
1323.346445
 21
449.640409
 31
0.0
  0
LINE
  5
33A
100
AcDbEntity
  8
2
  6
Continuous
 62
     1
100
AcDbLine
 10
1320.998558
 20
484.640411
 30
0.0
 11
1331.646448
 21
471.140407
 31
0.0
  0
LINE
  5
33B
100
AcDbEntity
  8
2
  6
Continuous
 62
     1
100
AcDbLine
 10
1327.846446
 20
468.64041
 30
0.0
 11
1183.546442
 21
468.64041
 31
0.0
  0
LINE
  5
33C
100
AcDbEntity
  8
2
  6
Continuous
 62
     1
100
AcDbLine
 10
1324.846445
 20
455.640405
 30
0.0
 11
1183.546442
 21
455.640405
 31
0.0
  0
LINE
  5
33D
100
AcDbEntity
  8
2
  6
CENTER
 62
     1
100
AcDbLine
 10
1331.046447
 20
452.640409
 30
0.0
 11
1183.546442
 21
452.640409
 31
0.0
  0
LINE
  5
33E
100
AcDbEntity
  8
2
  6
Continuous
 62
     1
100
AcDbLine
 10
1324.846445
 20
449.640409
 30
0.0
 11
1183.546442
 21
449.640409
 31
0.0
  0
LINE
  5
33F
100
AcDbEntity
  8
2
  6
Continuous
 62
     1
100
AcDbLine
 10
1327.846446
 20
436.640403
 30
0.0
 11
1183.546442
 21
436.640403
 31
0.0
  0
LINE
  5
340
100
AcDbEntity
  8
2
  6
Continuous
 62
     1
100
AcDbLine
 10
1343.546442
 20
504.640409
 30
0.0
 11
1343.546442
 21
509.840409
 31
0.0
  0
LINE
  5
341
100
AcDbEntity
  8
2
  6
Continuous
 62
     1
100
AcDbLine
 10
1343.546442
 20
509.840409
 30
0.0
 11
1183.546442
 21
509.840409
 31
0.0
  0
LINE
  5
342
100
AcDbEntity
  8
2
  6
Continuous
 62
     1
100
AcDbLine
 10
1343.546442
 20
506.840408
 30
0.0
 11
1183.546442
 21
506.840408
 31
0.0
  0
LINE
  5
343
100
AcDbEntity
  8
2
  6
Continuous
 62
     1
100
AcDbLine
 10
1343.546442
 20
506.040406
 30
0.0
 11
1183.546442
 21
506.040406
 31
0.0
  0
LINE
  5
344
100
AcDbEntity
  8
2
  6
CENTER
 62
     1
100
AcDbLine
 10
1183.546442
 20
548.047503
 30
0.0
 11
1183.546442
 21
116.929494
 31
0.0
  0
LINE
  5
345
100
AcDbEntity
  8
2
  6
CENTER
 62
     1
100
AcDbLine
 10
1034.546442
 20
264.640401
 30
0.0
 11
1034.546442
 21
437.780093
 31
0.0
  0
LINE
  5
346
100
AcDbEntity
  8
2
  6
CENTER
 62
     1
100
AcDbLine
 10
1332.546442
 20
264.640401
 30
0.0
 11
1332.546442
 21
437.780093
 31
0.0
  0
LINE
  5
347
100
AcDbEntity
  8
2
  6
Continuous
 62
     1
100
AcDbLine
 10
1575.148277
 20
540.60121
 30
0.0
 11
1575.048274
 21
540.60121
 31
0.0
  0
LINE
  5
348
100
AcDbEntity
  8
2
  6
CENTER
 62
     1
100
AcDbLine
 10
1391.681132
 20
887.079261
 30
0.0
 11
1870.411781
 21
887.079261
 31
0.0
  0
LINE
  5
349
100
AcDbEntity
  8
2
  6
CENTER
 62
     1
100
AcDbLine
 10
1631.046456
 20
1126.444585
 30
0.0
 11
1631.046456
 21
647.713936
 31
0.0
  0
CIRCLE
  5
34A
100
AcDbEntity
  8
2
  6
PHANTOM
 62
     1
100
AcDbCircle
 10
1631.046456
 20
887.079261
 30
0.0
 40
172.5
  0
CIRCLE
  5
34B
100
AcDbEntity
  8
2
  6
Continuous
 62
     1
100
AcDbCircle
 10
1631.046456
 20
887.079261
 30
0.0
 40
192.5
  0
CIRCLE
  5
34C
100
AcDbEntity
  8
2
  6
Continuous
 62
     1
100
AcDbCircle
 10
1631.046456
 20
887.079261
 30
0.0
 40
160.0
  0
CIRCLE
  5
34D
100
AcDbEntity
  8
2
  6
Continuous
 62
     1
100
AcDbCircle
 10
1631.046456
 20
887.079261
 30
0.0
 40
133.5
  0
CIRCLE
  5
34E
100
AcDbEntity
  8
2
  6
HIDDEN
 62
     1
100
AcDbCircle
 10
1631.046456
 20
887.079261
 30
0.0
 40
135.0
  0
LINE
  5
34F
100
AcDbEntity
  8
2
  6
CENTER
 62
     1
100
AcDbLine
 10
1796.994642
 20
982.889491
 30
0.0
 11
1763.877035
 21
963.769031
 31
0.0
  0
CIRCLE
  5
350
100
AcDbEntity
  8
2
  6
Continuous
 62
     1
100
AcDbCircle
 10
1780.435839
 20
973.32926
 30
0.0
 40
11.5
  0
CIRCLE
  5
351
100
AcDbEntity
  8
2
  6
Continuous
 62
     1
100
AcDbCircle
 10
1803.546456
 20
887.079261
 30
0.0
 40
11.5
  0
LINE
  5
352
100
AcDbEntity
  8
2
  6
CENTER
 62
     1
100
AcDbLine
 10
1726.856686
 20
1053.027446
 30
0.0
 11
1707.736227
 21
1019.909839
 31
0.0
  0
CIRCLE
  5
353
100
AcDbEntity
  8
2
  6
Continuous
 62
     1
100
AcDbCircle
 10
1717.296457
 20
1036.468642
 30
0.0
 40
11.5
  0
CIRCLE
  5
354
100
AcDbEntity
  8
2
  6
Continuous
 62
     1
100
AcDbCircle
 10
1631.046456
 20
1059.579261
 30
0.0
 40
11.5
  0
LINE
  5
355
100
AcDbEntity
  8
2
  6
CENTER
 62
     1
100
AcDbLine
 10
1465.098272
 20
982.889491
 30
0.0
 11
1498.215879
 21
963.769031
 31
0.0
  0
CIRCLE
  5
356
100
AcDbEntity
  8
2
  6
Continuous
 62
     1
100
AcDbCircle
 10
1481.657075
 20
973.32926
 30
0.0
 40
11.5
  0
CIRCLE
  5
357
100
AcDbEntity
  8
2
  6
Continuous
 62
     1
100
AcDbCircle
 10
1458.546457
 20
887.079261
 30
0.0
 40
11.5
  0
LINE
  5
358
100
AcDbEntity
  8
2
  6
CENTER
 62
     1
100
AcDbLine
 10
1535.236228
 20
1053.027446
 30
0.0
 11
1554.356687
 21
1019.909839
 31
0.0
  0
CIRCLE
  5
359
100
AcDbEntity
  8
2
  6
Continuous
 62
     1
100
AcDbCircle
 10
1544.796457
 20
1036.468642
 30
0.0
 40
11.5
  0
LINE
  5
35A
100
AcDbEntity
  8
2
  6
CENTER
 62
     1
100
AcDbLine
 10
1796.994642
 20
791.269031
 30
0.0
 11
1763.877035
 21
810.38949
 31
0.0
  0
CIRCLE
  5
35B
100
AcDbEntity
  8
2
  6
Continuous
 62
     1
100
AcDbCircle
 10
1780.435839
 20
800.829261
 30
0.0
 40
11.5
  0
LINE
  5
35C
100
AcDbEntity
  8
2
  6
CENTER
 62
     1
100
AcDbLine
 10
1726.856686
 20
721.131075
 30
0.0
 11
1707.736227
 21
754.248682
 31
0.0
  0
CIRCLE
  5
35D
100
AcDbEntity
  8
2
  6
Continuous
 62
     1
100
AcDbCircle
 10
1717.296457
 20
737.689879
 30
0.0
 40
11.5
  0
CIRCLE
  5
35E
100
AcDbEntity
  8
2
  6
Continuous
 62
     1
100
AcDbCircle
 10
1631.046456
 20
714.579261
 30
0.0
 40
11.5
  0
LINE
  5
35F
100
AcDbEntity
  8
2
  6
CENTER
 62
     1
100
AcDbLine
 10
1465.098272
 20
791.269031
 30
0.0
 11
1498.215879
 21
810.38949
 31
0.0
  0
CIRCLE
  5
360
100
AcDbEntity
  8
2
  6
Continuous
 62
     1
100
AcDbCircle
 10
1481.657075
 20
800.829261
 30
0.0
 40
11.5
  0
LINE
  5
361
100
AcDbEntity
  8
2
  6
CENTER
 62
     1
100
AcDbLine
 10
1535.236228
 20
721.131075
 30
0.0
 11
1554.356687
 21
754.248682
 31
0.0
  0
CIRCLE
  5
362
100
AcDbEntity
  8
2
  6
Continuous
 62
     1
100
AcDbCircle
 10
1544.796457
 20
737.689879
 30
0.0
 40
11.5
  0
LINE
  5
363
100
AcDbEntity
  8
2
  6
Continuous
 62
     1
100
AcDbLine
 10
1438.546449
 20
524.640411
 30
0.0
 11
1438.546449
 21
544.640409
 31
0.0
  0
LINE
  5
364
100
AcDbEntity
  8
2
  6
CENTER
 62
     1
100
AcDbLine
 10
1458.546447
 20
557.440408
 30
0.0
 11
1458.546447
 21
508.64041
 31
0.0
  0
LINE
  5
365
100
AcDbEntity
  8
2
  6
CENTER
 62
     1
100
AcDbLine
 10
1458.546447
 20
512.34041
 30
0.0
 11
1458.546447
 21
557.440408
 31
0.0
  0
LINE
  5
366
100
AcDbEntity
  8
2
  6
Continuous
 62
     1
100
AcDbLine
 10
1438.546449
 20
544.640409
 30
0.0
 11
1631.046456
 21
544.640409
 31
0.0
  0
LINE
  5
367
100
AcDbEntity
  8
2
  6
Continuous
 62
     1
100
AcDbLine
 10
1631.046456
 20
524.640411
 30
0.0
 11
1438.546449
 21
524.640411
 31
0.0
  0
ARC
  5
368
100
AcDbEntity
  8
2
  6
Continuous
 62
     1
100
AcDbCircle
 10
1486.546458
 20
508.64041
 30
0.0
 40
4.500001
100
AcDbArc
 50
147.70852
 51
-144.911644
  0
ARC
  5
369
100
AcDbEntity
  8
2
  6
Continuous
 62
     1
100
AcDbCircle
 10
1489.746453
 20
492.640409
 30
0.0
 40
3.000001
100
AcDbArc
 50
90.01167
 51
-90.022287
  0
LINE
  5
36A
100
AcDbEntity
  8
2
  6
Continuous
 62
     1
100
AcDbLine
 10
1491.246454
 20
495.640405
 30
0.0
 11
1482.94645
 21
506.140408
 31
0.0
  0
LINE
  5
36B
100
AcDbEntity
  8
2
  6
Continuous
 62
     1
100
AcDbLine
 10
1482.94645
 20
479.140406
 30
0.0
 11
1491.246454
 21
489.640409
 31
0.0
  0
ARC
  5
36C
100
AcDbEntity
  8
2
  6
Continuous
 62
     1
100
AcDbCircle
 10
1486.546458
 20
476.640403
 30
0.0
 40
4.500001
100
AcDbArc
 50
147.70852
 51
-144.911644
  0
LINE
  5
36D
100
AcDbEntity
  8
2
  6
Continuous
 62
     1
100
AcDbLine
 10
1491.246454
 20
463.640409
 30
0.0
 11
1482.94645
 21
474.140406
 31
0.0
  0
LINE
  5
36E
100
AcDbEntity
  8
2
  6
Continuous
 62
     1
100
AcDbLine
 10
1482.94645
 20
479.140406
 30
0.0
 11
1491.246454
 21
489.640409
 31
0.0
  0
LINE
  5
36F
100
AcDbEntity
  8
2
  6
Continuous
 62
     1
100
AcDbLine
 10
1493.59434
 20
524.640411
 30
0.0
 11
1482.94645
 21
511.140407
 31
0.0
  0
LINE
  5
370
100
AcDbEntity
  8
2
  6
Continuous
 62
     1
100
AcDbLine
 10
1486.746453
 20
508.64041
 30
0.0
 11
1631.046456
 21
508.64041
 31
0.0
  0
LINE
  5
371
100
AcDbEntity
  8
2
  6
Continuous
 62
     1
100
AcDbLine
 10
1489.746453
 20
495.640405
 30
0.0
 11
1631.046456
 21
495.640405
 31
0.0
  0
LINE
  5
372
100
AcDbEntity
  8
2
  6
CENTER
 62
     1
100
AcDbLine
 10
1483.546451
 20
492.640409
 30
0.0
 11
1631.046456
 21
492.640409
 31
0.0
  0
LINE
  5
373
100
AcDbEntity
  8
2
  6
Continuous
 62
     1
100
AcDbLine
 10
1489.746453
 20
489.640409
 30
0.0
 11
1631.046456
 21
489.640409
 31
0.0
  0
LINE
  5
374
100
AcDbEntity
  8
2
  6
Continuous
 62
     1
100
AcDbLine
 10
1486.746453
 20
476.640403
 30
0.0
 11
1631.046456
 21
476.640403
 31
0.0
  0
LINE
  5
375
100
AcDbEntity
  8
2
  6
Continuous
 62
     1
100
AcDbLine
 10
1471.046456
 20
544.640409
 30
0.0
 11
1471.046456
 21
549.840409
 31
0.0
  0
LINE
  5
376
100
AcDbEntity
  8
2
  6
Continuous
 62
     1
100
AcDbLine
 10
1471.046456
 20
549.840409
 30
0.0
 11
1631.046456
 21
549.840409
 31
0.0
  0
LINE
  5
377
100
AcDbEntity
  8
2
  6
Continuous
 62
     1
100
AcDbLine
 10
1471.046456
 20
546.840408
 30
0.0
 11
1631.046456
 21
546.840408
 31
0.0
  0
LINE
  5
378
100
AcDbEntity
  8
2
  6
Continuous
 62
     1
100
AcDbLine
 10
1471.046456
 20
546.040406
 30
0.0
 11
1631.046456
 21
546.040406
 31
0.0
  0
LINE
  5
379
100
AcDbEntity
  8
2
  6
Continuous
 62
     1
100
AcDbLine
 10
1823.546464
 20
524.640411
 30
0.0
 11
1823.546464
 21
544.640409
 31
0.0
  0
LINE
  5
37A
100
AcDbEntity
  8
2
  6
CENTER
 62
     1
100
AcDbLine
 10
1803.546466
 20
557.440408
 30
0.0
 11
1803.546466
 21
508.64041
 31
0.0
  0
LINE
  5
37B
100
AcDbEntity
  8
2
  6
CENTER
 62
     1
100
AcDbLine
 10
1803.546466
 20
512.34041
 30
0.0
 11
1803.546466
 21
557.440408
 31
0.0
  0
LINE
  5
37C
100
AcDbEntity
  8
2
  6
Continuous
 62
     1
100
AcDbLine
 10
1823.546464
 20
544.640409
 30
0.0
 11
1631.046456
 21
544.640409
 31
0.0
  0
LINE
  5
37D
100
AcDbEntity
  8
2
  6
Continuous
 62
     1
100
AcDbLine
 10
1631.046456
 20
524.640411
 30
0.0
 11
1823.546464
 21
524.640411
 31
0.0
  0
ARC
  5
37E
100
AcDbEntity
  8
2
  6
Continuous
 62
     1
100
AcDbCircle
 10
1775.546455
 20
508.64041
 30
0.0
 40
4.500001
100
AcDbArc
 50
-35.088356
 51
32.29148
  0
ARC
  5
37F
100
AcDbEntity
  8
2
  6
Continuous
 62
     1
100
AcDbCircle
 10
1772.346459
 20
492.640409
 30
0.0
 40
3.000001
100
AcDbArc
 50
-89.977713
 51
89.98833
  0
LINE
  5
380
100
AcDbEntity
  8
2
  6
Continuous
 62
     1
100
AcDbLine
 10
1770.846459
 20
495.640405
 30
0.0
 11
1779.146463
 21
506.140408
 31
0.0
  0
LINE
  5
381
100
AcDbEntity
  8
2
  6
Continuous
 62
     1
100
AcDbLine
 10
1779.146463
 20
479.140406
 30
0.0
 11
1770.846459
 21
489.640409
 31
0.0
  0
ARC
  5
382
100
AcDbEntity
  8
2
  6
Continuous
 62
     1
100
AcDbCircle
 10
1775.546455
 20
476.640403
 30
0.0
 40
4.500001
100
AcDbArc
 50
-35.088356
 51
32.29148
  0
LINE
  5
383
100
AcDbEntity
  8
2
  6
Continuous
 62
     1
100
AcDbLine
 10
1770.846459
 20
463.640409
 30
0.0
 11
1779.146463
 21
474.140406
 31
0.0
  0
LINE
  5
384
100
AcDbEntity
  8
2
  6
Continuous
 62
     1
100
AcDbLine
 10
1779.146463
 20
479.140406
 30
0.0
 11
1770.846459
 21
489.640409
 31
0.0
  0
LINE
  5
385
100
AcDbEntity
  8
2
  6
Continuous
 62
     1
100
AcDbLine
 10
1768.498573
 20
524.640411
 30
0.0
 11
1779.146463
 21
511.140407
 31
0.0
  0
LINE
  5
386
100
AcDbEntity
  8
2
  6
Continuous
 62
     1
100
AcDbLine
 10
1775.34646
 20
508.64041
 30
0.0
 11
1631.046456
 21
508.64041
 31
0.0
  0
LINE
  5
387
100
AcDbEntity
  8
2
  6
Continuous
 62
     1
100
AcDbLine
 10
1772.346459
 20
495.640405
 30
0.0
 11
1631.046456
 21
495.640405
 31
0.0
  0
LINE
  5
388
100
AcDbEntity
  8
2
  6
CENTER
 62
     1
100
AcDbLine
 10
1778.546462
 20
492.640409
 30
0.0
 11
1631.046456
 21
492.640409
 31
0.0
  0
LINE
  5
389
100
AcDbEntity
  8
2
  6
Continuous
 62
     1
100
AcDbLine
 10
1772.346459
 20
489.640409
 30
0.0
 11
1631.046456
 21
489.640409
 31
0.0
  0
LINE
  5
38A
100
AcDbEntity
  8
2
  6
Continuous
 62
     1
100
AcDbLine
 10
1775.34646
 20
476.640403
 30
0.0
 11
1631.046456
 21
476.640403
 31
0.0
  0
LINE
  5
38B
100
AcDbEntity
  8
2
  6
Continuous
 62
     1
100
AcDbLine
 10
1791.046456
 20
544.640409
 30
0.0
 11
1791.046456
 21
549.840409
 31
0.0
  0
LINE
  5
38C
100
AcDbEntity
  8
2
  6
Continuous
 62
     1
100
AcDbLine
 10
1791.046456
 20
549.840409
 30
0.0
 11
1631.046456
 21
549.840409
 31
0.0
  0
LINE
  5
38D
100
AcDbEntity
  8
2
  6
Continuous
 62
     1
100
AcDbLine
 10
1791.046456
 20
546.840408
 30
0.0
 11
1631.046456
 21
546.840408
 31
0.0
  0
LINE
  5
38E
100
AcDbEntity
  8
2
  6
Continuous
 62
     1
100
AcDbLine
 10
1791.046456
 20
546.040406
 30
0.0
 11
1631.046456
 21
546.040406
 31
0.0
  0
LINE
  5
38F
100
AcDbEntity
  8
2
  6
CENTER
 62
     1
100
AcDbLine
 10
1631.046456
 20
588.047503
 30
0.0
 11
1631.046456
 21
117.452697
 31
0.0
  0
LINE
  5
390
100
AcDbEntity
  8
2
  6
CENTER
 62
     1
100
AcDbLine
 10
1482.046456
 20
264.640401
 30
0.0
 11
1482.046456
 21
477.780093
 31
0.0
  0
LINE
  5
391
100
AcDbEntity
  8
2
  6
CENTER
 62
     1
100
AcDbLine
 10
1780.046456
 20
264.640401
 30
0.0
 11
1780.046456
 21
477.780093
 31
0.0
  0
LINE
  5
392
100
AcDbEntity
  8
2
  6
Continuous
 62
     1
100
AcDbLine
 10
2022.648292
 20
570.60121
 30
0.0
 11
2022.548289
 21
570.60121
 31
0.0
  0
LINE
  5
393
100
AcDbEntity
  8
2
  6
CENTER
 62
     1
100
AcDbLine
 10
1839.181146
 20
917.079261
 30
0.0
 11
2317.911796
 21
917.079261
 31
0.0
  0
LINE
  5
394
100
AcDbEntity
  8
2
  6
CENTER
 62
     1
100
AcDbLine
 10
2078.546471
 20
1156.444585
 30
0.0
 11
2078.546471
 21
677.713936
 31
0.0
  0
CIRCLE
  5
395
100
AcDbEntity
  8
2
  6
PHANTOM
 62
     1
100
AcDbCircle
 10
2078.546471
 20
917.079261
 30
0.0
 40
172.5
  0
CIRCLE
  5
396
100
AcDbEntity
  8
2
  6
Continuous
 62
     1
100
AcDbCircle
 10
2078.546471
 20
917.079261
 30
0.0
 40
192.5
  0
CIRCLE
  5
397
100
AcDbEntity
  8
2
  6
Continuous
 62
     1
100
AcDbCircle
 10
2078.546471
 20
917.079261
 30
0.0
 40
160.0
  0
CIRCLE
  5
398
100
AcDbEntity
  8
2
  6
Continuous
 62
     1
100
AcDbCircle
 10
2078.546471
 20
917.079261
 30
0.0
 40
133.5
  0
CIRCLE
  5
399
100
AcDbEntity
  8
2
  6
HIDDEN
 62
     1
100
AcDbCircle
 10
2078.546471
 20
917.079261
 30
0.0
 40
135.0
  0
LINE
  5
39A
100
AcDbEntity
  8
2
  6
CENTER
 62
     1
100
AcDbLine
 10
2244.494657
 20
1012.889491
 30
0.0
 11
2211.377049
 21
993.769031
 31
0.0
  0
CIRCLE
  5
39B
100
AcDbEntity
  8
2
  6
Continuous
 62
     1
100
AcDbCircle
 10
2227.935853
 20
1003.32926
 30
0.0
 40
11.5
  0
CIRCLE
  5
39C
100
AcDbEntity
  8
2
  6
Continuous
 62
     1
100
AcDbCircle
 10
2251.046471
 20
917.079261
 30
0.0
 40
11.5
  0
LINE
  5
39D
100
AcDbEntity
  8
2
  6
CENTER
 62
     1
100
AcDbLine
 10
2174.356701
 20
1083.027446
 30
0.0
 11
2155.236241
 21
1049.909839
 31
0.0
  0
CIRCLE
  5
39E
100
AcDbEntity
  8
2
  6
Continuous
 62
     1
100
AcDbCircle
 10
2164.796471
 20
1066.468642
 30
0.0
 40
11.5
  0
CIRCLE
  5
39F
100
AcDbEntity
  8
2
  6
Continuous
 62
     1
100
AcDbCircle
 10
2078.546471
 20
1089.579261
 30
0.0
 40
11.5
  0
LINE
  5
3A0
100
AcDbEntity
  8
2
  6
CENTER
 62
     1
100
AcDbLine
 10
1912.598286
 20
1012.889491
 30
0.0
 11
1945.715894
 21
993.769031
 31
0.0
  0
CIRCLE
  5
3A1
100
AcDbEntity
  8
2
  6
Continuous
 62
     1
100
AcDbCircle
 10
1929.15709
 20
1003.32926
 30
0.0
 40
11.5
  0
CIRCLE
  5
3A2
100
AcDbEntity
  8
2
  6
Continuous
 62
     1
100
AcDbCircle
 10
1906.046472
 20
917.079261
 30
0.0
 40
11.5
  0
LINE
  5
3A3
100
AcDbEntity
  8
2
  6
CENTER
 62
     1
100
AcDbLine
 10
1982.736242
 20
1083.027446
 30
0.0
 11
2001.856702
 21
1049.909839
 31
0.0
  0
CIRCLE
  5
3A4
100
AcDbEntity
  8
2
  6
Continuous
 62
     1
100
AcDbCircle
 10
1992.296472
 20
1066.468642
 30
0.0
 40
11.5
  0
LINE
  5
3A5
100
AcDbEntity
  8
2
  6
CENTER
 62
     1
100
AcDbLine
 10
2244.494657
 20
821.269031
 30
0.0
 11
2211.377049
 21
840.38949
 31
0.0
  0
CIRCLE
  5
3A6
100
AcDbEntity
  8
2
  6
Continuous
 62
     1
100
AcDbCircle
 10
2227.935853
 20
830.829261
 30
0.0
 40
11.5
  0
LINE
  5
3A7
100
AcDbEntity
  8
2
  6
CENTER
 62
     1
100
AcDbLine
 10
2174.356701
 20
751.131075
 30
0.0
 11
2155.236241
 21
784.248682
 31
0.0
  0
CIRCLE
  5
3A8
100
AcDbEntity
  8
2
  6
Continuous
 62
     1
100
AcDbCircle
 10
2164.796471
 20
767.689879
 30
0.0
 40
11.5
  0
CIRCLE
  5
3A9
100
AcDbEntity
  8
2
  6
Continuous
 62
     1
100
AcDbCircle
 10
2078.546471
 20
744.579261
 30
0.0
 40
11.5
  0
LINE
  5
3AA
100
AcDbEntity
  8
2
  6
CENTER
 62
     1
100
AcDbLine
 10
1912.598286
 20
821.269031
 30
0.0
 11
1945.715894
 21
840.38949
 31
0.0
  0
CIRCLE
  5
3AB
100
AcDbEntity
  8
2
  6
Continuous
 62
     1
100
AcDbCircle
 10
1929.15709
 20
830.829261
 30
0.0
 40
11.5
  0
LINE
  5
3AC
100
AcDbEntity
  8
2
  6
CENTER
 62
     1
100
AcDbLine
 10
1982.736242
 20
751.131075
 30
0.0
 11
2001.856702
 21
784.248682
 31
0.0
  0
CIRCLE
  5
3AD
100
AcDbEntity
  8
2
  6
Continuous
 62
     1
100
AcDbCircle
 10
1992.296472
 20
767.689879
 30
0.0
 40
11.5
  0
LINE
  5
3AE
100
AcDbEntity
  8
2
  6
Continuous
 62
     1
100
AcDbLine
 10
1886.046464
 20
554.640411
 30
0.0
 11
1886.046464
 21
574.640409
 31
0.0
  0
LINE
  5
3AF
100
AcDbEntity
  8
2
  6
CENTER
 62
     1
100
AcDbLine
 10
1906.046462
 20
587.440408
 30
0.0
 11
1906.046462
 21
538.64041
 31
0.0
  0
LINE
  5
3B0
100
AcDbEntity
  8
2
  6
CENTER
 62
     1
100
AcDbLine
 10
1906.046462
 20
542.34041
 30
0.0
 11
1906.046462
 21
587.440408
 31
0.0
  0
LINE
  5
3B1
100
AcDbEntity
  8
2
  6
Continuous
 62
     1
100
AcDbLine
 10
1886.046464
 20
574.640409
 30
0.0
 11
2078.546471
 21
574.640409
 31
0.0
  0
LINE
  5
3B2
100
AcDbEntity
  8
2
  6
Continuous
 62
     1
100
AcDbLine
 10
2078.546471
 20
554.640411
 30
0.0
 11
1886.046464
 21
554.640411
 31
0.0
  0
ARC
  5
3B3
100
AcDbEntity
  8
2
  6
Continuous
 62
     1
100
AcDbCircle
 10
1934.046472
 20
538.64041
 30
0.0
 40
4.500001
100
AcDbArc
 50
147.70852
 51
-144.911644
  0
ARC
  5
3B4
100
AcDbEntity
  8
2
  6
Continuous
 62
     1
100
AcDbCircle
 10
1937.246468
 20
522.640409
 30
0.0
 40
3.000001
100
AcDbArc
 50
90.01167
 51
-90.022287
  0
LINE
  5
3B5
100
AcDbEntity
  8
2
  6
Continuous
 62
     1
100
AcDbLine
 10
1938.746468
 20
525.640405
 30
0.0
 11
1930.446464
 21
536.140408
 31
0.0
  0
LINE
  5
3B6
100
AcDbEntity
  8
2
  6
Continuous
 62
     1
100
AcDbLine
 10
1930.446464
 20
509.140406
 30
0.0
 11
1938.746468
 21
519.640409
 31
0.0
  0
ARC
  5
3B7
100
AcDbEntity
  8
2
  6
Continuous
 62
     1
100
AcDbCircle
 10
1934.046472
 20
506.640403
 30
0.0
 40
4.500001
100
AcDbArc
 50
147.70852
 51
-144.911644
  0
LINE
  5
3B8
100
AcDbEntity
  8
2
  6
Continuous
 62
     1
100
AcDbLine
 10
1938.746468
 20
493.640409
 30
0.0
 11
1930.446464
 21
504.140406
 31
0.0
  0
LINE
  5
3B9
100
AcDbEntity
  8
2
  6
Continuous
 62
     1
100
AcDbLine
 10
1930.446464
 20
509.140406
 30
0.0
 11
1938.746468
 21
519.640409
 31
0.0
  0
LINE
  5
3BA
100
AcDbEntity
  8
2
  6
Continuous
 62
     1
100
AcDbLine
 10
1941.094354
 20
554.640411
 30
0.0
 11
1930.446464
 21
541.140407
 31
0.0
  0
LINE
  5
3BB
100
AcDbEntity
  8
2
  6
Continuous
 62
     1
100
AcDbLine
 10
1934.246467
 20
538.64041
 30
0.0
 11
2078.546471
 21
538.64041
 31
0.0
  0
LINE
  5
3BC
100
AcDbEntity
  8
2
  6
Continuous
 62
     1
100
AcDbLine
 10
1937.246468
 20
525.640405
 30
0.0
 11
2078.546471
 21
525.640405
 31
0.0
  0
LINE
  5
3BD
100
AcDbEntity
  8
2
  6
CENTER
 62
     1
100
AcDbLine
 10
1931.046466
 20
522.640409
 30
0.0
 11
2078.546471
 21
522.640409
 31
0.0
  0
LINE
  5
3BE
100
AcDbEntity
  8
2
  6
Continuous
 62
     1
100
AcDbLine
 10
1937.246468
 20
519.640409
 30
0.0
 11
2078.546471
 21
519.640409
 31
0.0
  0
LINE
  5
3BF
100
AcDbEntity
  8
2
  6
Continuous
 62
     1
100
AcDbLine
 10
1934.246467
 20
506.640403
 30
0.0
 11
2078.546471
 21
506.640403
 31
0.0
  0
LINE
  5
3C0
100
AcDbEntity
  8
2
  6
Continuous
 62
     1
100
AcDbLine
 10
1918.546471
 20
574.640409
 30
0.0
 11
1918.546471
 21
579.840409
 31
0.0
  0
LINE
  5
3C1
100
AcDbEntity
  8
2
  6
Continuous
 62
     1
100
AcDbLine
 10
1918.546471
 20
579.840409
 30
0.0
 11
2078.546471
 21
579.840409
 31
0.0
  0
LINE
  5
3C2
100
AcDbEntity
  8
2
  6
Continuous
 62
     1
100
AcDbLine
 10
1918.546471
 20
576.840408
 30
0.0
 11
2078.546471
 21
576.840408
 31
0.0
  0
LINE
  5
3C3
100
AcDbEntity
  8
2
  6
Continuous
 62
     1
100
AcDbLine
 10
1918.546471
 20
576.040406
 30
0.0
 11
2078.546471
 21
576.040406
 31
0.0
  0
LINE
  5
3C4
100
AcDbEntity
  8
2
  6
Continuous
 62
     1
100
AcDbLine
 10
2271.046478
 20
554.640411
 30
0.0
 11
2271.046478
 21
574.640409
 31
0.0
  0
LINE
  5
3C5
100
AcDbEntity
  8
2
  6
CENTER
 62
     1
100
AcDbLine
 10
2251.04648
 20
587.440408
 30
0.0
 11
2251.04648
 21
538.64041
 31
0.0
  0
LINE
  5
3C6
100
AcDbEntity
  8
2
  6
CENTER
 62
     1
100
AcDbLine
 10
2251.04648
 20
542.34041
 30
0.0
 11
2251.04648
 21
587.440408
 31
0.0
  0
LINE
  5
3C7
100
AcDbEntity
  8
2
  6
Continuous
 62
     1
100
AcDbLine
 10
2271.046478
 20
574.640409
 30
0.0
 11
2078.546471
 21
574.640409
 31
0.0
  0
LINE
  5
3C8
100
AcDbEntity
  8
2
  6
Continuous
 62
     1
100
AcDbLine
 10
2078.546471
 20
554.640411
 30
0.0
 11
2271.046478
 21
554.640411
 31
0.0
  0
ARC
  5
3C9
100
AcDbEntity
  8
2
  6
Continuous
 62
     1
100
AcDbCircle
 10
2223.04647
 20
538.64041
 30
0.0
 40
4.500001
100
AcDbArc
 50
-35.088356
 51
32.29148
  0
ARC
  5
3CA
100
AcDbEntity
  8
2
  6
Continuous
 62
     1
100
AcDbCircle
 10
2219.846474
 20
522.640409
 30
0.0
 40
3.000001
100
AcDbArc
 50
-89.977713
 51
89.98833
  0
LINE
  5
3CB
100
AcDbEntity
  8
2
  6
Continuous
 62
     1
100
AcDbLine
 10
2218.346473
 20
525.640405
 30
0.0
 11
2226.646477
 21
536.140408
 31
0.0
  0
LINE
  5
3CC
100
AcDbEntity
  8
2
  6
Continuous
 62
     1
100
AcDbLine
 10
2226.646477
 20
509.140406
 30
0.0
 11
2218.346473
 21
519.640409
 31
0.0
  0
ARC
  5
3CD
100
AcDbEntity
  8
2
  6
Continuous
 62
     1
100
AcDbCircle
 10
2223.04647
 20
506.640403
 30
0.0
 40
4.500001
100
AcDbArc
 50
-35.088356
 51
32.29148
  0
LINE
  5
3CE
100
AcDbEntity
  8
2
  6
Continuous
 62
     1
100
AcDbLine
 10
2218.346473
 20
493.640409
 30
0.0
 11
2226.646477
 21
504.140406
 31
0.0
  0
LINE
  5
3CF
100
AcDbEntity
  8
2
  6
Continuous
 62
     1
100
AcDbLine
 10
2226.646477
 20
509.140406
 30
0.0
 11
2218.346473
 21
519.640409
 31
0.0
  0
LINE
  5
3D0
100
AcDbEntity
  8
2
  6
Continuous
 62
     1
100
AcDbLine
 10
2215.998587
 20
554.640411
 30
0.0
 11
2226.646477
 21
541.140407
 31
0.0
  0
LINE
  5
3D1
100
AcDbEntity
  8
2
  6
Continuous
 62
     1
100
AcDbLine
 10
2222.846475
 20
538.64041
 30
0.0
 11
2078.546471
 21
538.64041
 31
0.0
  0
LINE
  5
3D2
100
AcDbEntity
  8
2
  6
Continuous
 62
     1
100
AcDbLine
 10
2219.846474
 20
525.640405
 30
0.0
 11
2078.546471
 21
525.640405
 31
0.0
  0
LINE
  5
3D3
100
AcDbEntity
  8
2
  6
CENTER
 62
     1
100
AcDbLine
 10
2226.046476
 20
522.640409
 30
0.0
 11
2078.546471
 21
522.640409
 31
0.0
  0
LINE
  5
3D4
100
AcDbEntity
  8
2
  6
Continuous
 62
     1
100
AcDbLine
 10
2219.846474
 20
519.640409
 30
0.0
 11
2078.546471
 21
519.640409
 31
0.0
  0
LINE
  5
3D5
100
AcDbEntity
  8
2
  6
Continuous
 62
     1
100
AcDbLine
 10
2222.846475
 20
506.640403
 30
0.0
 11
2078.546471
 21
506.640403
 31
0.0
  0
LINE
  5
3D6
100
AcDbEntity
  8
2
  6
Continuous
 62
     1
100
AcDbLine
 10
2238.546471
 20
574.640409
 30
0.0
 11
2238.546471
 21
579.840409
 31
0.0
  0
LINE
  5
3D7
100
AcDbEntity
  8
2
  6
Continuous
 62
     1
100
AcDbLine
 10
2238.546471
 20
579.840409
 30
0.0
 11
2078.546471
 21
579.840409
 31
0.0
  0
LINE
  5
3D8
100
AcDbEntity
  8
2
  6
Continuous
 62
     1
100
AcDbLine
 10
2238.546471
 20
576.840408
 30
0.0
 11
2078.546471
 21
576.840408
 31
0.0
  0
LINE
  5
3D9
100
AcDbEntity
  8
2
  6
Continuous
 62
     1
100
AcDbLine
 10
2238.546471
 20
576.040406
 30
0.0
 11
2078.546471
 21
576.040406
 31
0.0
  0
LINE
  5
3DA
100
AcDbEntity
  8
2
  6
CENTER
 62
     1
100
AcDbLine
 10
1929.546471
 20
264.640401
 30
0.0
 11
1929.546471
 21
507.780093
 31
0.0
  0
LINE
  5
3DB
100
AcDbEntity
  8
2
  6
CENTER
 62
     1
100
AcDbLine
 10
2227.546471
 20
264.640401
 30
0.0
 11
2227.546471
 21
507.780093
 31
0.0
  0
LINE
  5
3DC
100
AcDbEntity
  8
2
  6
CENTER
 62
     1
100
AcDbLine
 10
2078.546471
 20
618.047503
 30
0.0
 11
2078.546471
 21
127.131951
 31
0.0
  0
LINE
  5
3DD
100
AcDbEntity
  8
2
  6
Continuous
 62
     1
100
AcDbLine
 10
2470.148306
 20
600.60121
 30
0.0
 11
2470.048303
 21
600.60121
 31
0.0
  0
LINE
  5
3DE
100
AcDbEntity
  8
2
  6
CENTER
 62
     1
100
AcDbLine
 10
2286.68116
 20
947.079261
 30
0.0
 11
2765.41181
 21
947.079261
 31
0.0
  0
LINE
  5
3DF
100
AcDbEntity
  8
2
  6
CENTER
 62
     1
100
AcDbLine
 10
2526.046485
 20
1186.444585
 30
0.0
 11
2526.046485
 21
707.713936
 31
0.0
  0
CIRCLE
  5
3E0
100
AcDbEntity
  8
2
  6
PHANTOM
 62
     1
100
AcDbCircle
 10
2526.046485
 20
947.079261
 30
0.0
 40
172.5
  0
CIRCLE
  5
3E1
100
AcDbEntity
  8
2
  6
Continuous
 62
     1
100
AcDbCircle
 10
2526.046485
 20
947.079261
 30
0.0
 40
192.5
  0
CIRCLE
  5
3E2
100
AcDbEntity
  8
2
  6
Continuous
 62
     1
100
AcDbCircle
 10
2526.046485
 20
947.079261
 30
0.0
 40
160.0
  0
CIRCLE
  5
3E3
100
AcDbEntity
  8
2
  6
Continuous
 62
     1
100
AcDbCircle
 10
2526.046485
 20
947.079261
 30
0.0
 40
133.5
  0
CIRCLE
  5
3E4
100
AcDbEntity
  8
2
  6
HIDDEN
 62
     1
100
AcDbCircle
 10
2526.046485
 20
947.079261
 30
0.0
 40
135.0
  0
LINE
  5
3E5
100
AcDbEntity
  8
2
  6
CENTER
 62
     1
100
AcDbLine
 10
2691.994671
 20
1042.889491
 30
0.0
 11
2658.877064
 21
1023.769031
 31
0.0
  0
CIRCLE
  5
3E6
100
AcDbEntity
  8
2
  6
Continuous
 62
     1
100
AcDbCircle
 10
2675.435868
 20
1033.32926
 30
0.0
 40
11.5
  0
CIRCLE
  5
3E7
100
AcDbEntity
  8
2
  6
Continuous
 62
     1
100
AcDbCircle
 10
2698.546485
 20
947.079261
 30
0.0
 40
11.5
  0
LINE
  5
3E8
100
AcDbEntity
  8
2
  6
CENTER
 62
     1
100
AcDbLine
 10
2621.856715
 20
1113.027446
 30
0.0
 11
2602.736256
 21
1079.909839
 31
0.0
  0
CIRCLE
  5
3E9
100
AcDbEntity
  8
2
  6
Continuous
 62
     1
100
AcDbCircle
 10
2612.296486
 20
1096.468642
 30
0.0
 40
11.5
  0
CIRCLE
  5
3EA
100
AcDbEntity
  8
2
  6
Continuous
 62
     1
100
AcDbCircle
 10
2526.046485
 20
1119.579261
 30
0.0
 40
11.5
  0
LINE
  5
3EB
100
AcDbEntity
  8
2
  6
CENTER
 62
     1
100
AcDbLine
 10
2360.0983
 20
1042.889491
 30
0.0
 11
2393.215908
 21
1023.769031
 31
0.0
  0
CIRCLE
  5
3EC
100
AcDbEntity
  8
2
  6
Continuous
 62
     1
100
AcDbCircle
 10
2376.657104
 20
1033.32926
 30
0.0
 40
11.5
  0
CIRCLE
  5
3ED
100
AcDbEntity
  8
2
  6
Continuous
 62
     1
100
AcDbCircle
 10
2353.546486
 20
947.079261
 30
0.0
 40
11.5
  0
LINE
  5
3EE
100
AcDbEntity
  8
2
  6
CENTER
 62
     1
100
AcDbLine
 10
2430.236256
 20
1113.027446
 30
0.0
 11
2449.356716
 21
1079.909839
 31
0.0
  0
CIRCLE
  5
3EF
100
AcDbEntity
  8
2
  6
Continuous
 62
     1
100
AcDbCircle
 10
2439.796486
 20
1096.468642
 30
0.0
 40
11.5
  0
LINE
  5
3F0
100
AcDbEntity
  8
2
  6
CENTER
 62
     1
100
AcDbLine
 10
2691.994671
 20
851.269031
 30
0.0
 11
2658.877064
 21
870.38949
 31
0.0
  0
CIRCLE
  5
3F1
100
AcDbEntity
  8
2
  6
Continuous
 62
     1
100
AcDbCircle
 10
2675.435868
 20
860.829261
 30
0.0
 40
11.5
  0
LINE
  5
3F2
100
AcDbEntity
  8
2
  6
CENTER
 62
     1
100
AcDbLine
 10
2621.856715
 20
781.131075
 30
0.0
 11
2602.736256
 21
814.248682
 31
0.0
  0
CIRCLE
  5
3F3
100
AcDbEntity
  8
2
  6
Continuous
 62
     1
100
AcDbCircle
 10
2612.296486
 20
797.689879
 30
0.0
 40
11.5
  0
CIRCLE
  5
3F4
100
AcDbEntity
  8
2
  6
Continuous
 62
     1
100
AcDbCircle
 10
2526.046485
 20
774.579261
 30
0.0
 40
11.5
  0
LINE
  5
3F5
100
AcDbEntity
  8
2
  6
CENTER
 62
     1
100
AcDbLine
 10
2360.0983
 20
851.269031
 30
0.0
 11
2393.215908
 21
870.38949
 31
0.0
  0
CIRCLE
  5
3F6
100
AcDbEntity
  8
2
  6
Continuous
 62
     1
100
AcDbCircle
 10
2376.657104
 20
860.829261
 30
0.0
 40
11.5
  0
LINE
  5
3F7
100
AcDbEntity
  8
2
  6
CENTER
 62
     1
100
AcDbLine
 10
2430.236256
 20
781.131075
 30
0.0
 11
2449.356716
 21
814.248682
 31
0.0
  0
CIRCLE
  5
3F8
100
AcDbEntity
  8
2
  6
Continuous
 62
     1
100
AcDbCircle
 10
2439.796486
 20
797.689879
 30
0.0
 40
11.5
  0
LINE
  5
3F9
100
AcDbEntity
  8
2
  6
Continuous
 62
     1
100
AcDbLine
 10
2333.546478
 20
584.640411
 30
0.0
 11
2333.546478
 21
604.640409
 31
0.0
  0
LINE
  5
3FA
100
AcDbEntity
  8
2
  6
CENTER
 62
     1
100
AcDbLine
 10
2353.546476
 20
617.440408
 30
0.0
 11
2353.546476
 21
568.64041
 31
0.0
  0
LINE
  5
3FB
100
AcDbEntity
  8
2
  6
CENTER
 62
     1
100
AcDbLine
 10
2353.546476
 20
572.34041
 30
0.0
 11
2353.546476
 21
617.440408
 31
0.0
  0
LINE
  5
3FC
100
AcDbEntity
  8
2
  6
Continuous
 62
     1
100
AcDbLine
 10
2333.546478
 20
604.640409
 30
0.0
 11
2526.046485
 21
604.640409
 31
0.0
  0
LINE
  5
3FD
100
AcDbEntity
  8
2
  6
Continuous
 62
     1
100
AcDbLine
 10
2526.046485
 20
584.640411
 30
0.0
 11
2333.546478
 21
584.640411
 31
0.0
  0
ARC
  5
3FE
100
AcDbEntity
  8
2
  6
Continuous
 62
     1
100
AcDbCircle
 10
2381.546487
 20
568.64041
 30
0.0
 40
4.500001
100
AcDbArc
 50
147.70852
 51
-144.911644
  0
ARC
  5
3FF
100
AcDbEntity
  8
2
  6
Continuous
 62
     1
100
AcDbCircle
 10
2384.746482
 20
552.640409
 30
0.0
 40
3.000001
100
AcDbArc
 50
90.01167
 51
-90.022287
  0
LINE
  5
400
100
AcDbEntity
  8
2
  6
Continuous
 62
     1
100
AcDbLine
 10
2386.246483
 20
555.640405
 30
0.0
 11
2377.946479
 21
566.140408
 31
0.0
  0
LINE
  5
401
100
AcDbEntity
  8
2
  6
Continuous
 62
     1
100
AcDbLine
 10
2377.946479
 20
539.140406
 30
0.0
 11
2386.246483
 21
549.640409
 31
0.0
  0
ARC
  5
402
100
AcDbEntity
  8
2
  6
Continuous
 62
     1
100
AcDbCircle
 10
2381.546487
 20
536.640403
 30
0.0
 40
4.500001
100
AcDbArc
 50
147.70852
 51
-144.911644
  0
LINE
  5
403
100
AcDbEntity
  8
2
  6
Continuous
 62
     1
100
AcDbLine
 10
2386.246483
 20
523.640409
 30
0.0
 11
2377.946479
 21
534.140406
 31
0.0
  0
LINE
  5
404
100
AcDbEntity
  8
2
  6
Continuous
 62
     1
100
AcDbLine
 10
2377.946479
 20
539.140406
 30
0.0
 11
2386.246483
 21
549.640409
 31
0.0
  0
LINE
  5
405
100
AcDbEntity
  8
2
  6
Continuous
 62
     1
100
AcDbLine
 10
2388.594369
 20
584.640411
 30
0.0
 11
2377.946479
 21
571.140407
 31
0.0
  0
LINE
  5
406
100
AcDbEntity
  8
2
  6
Continuous
 62
     1
100
AcDbLine
 10
2381.746481
 20
568.64041
 30
0.0
 11
2526.046485
 21
568.64041
 31
0.0
  0
LINE
  5
407
100
AcDbEntity
  8
2
  6
Continuous
 62
     1
100
AcDbLine
 10
2384.746482
 20
555.640405
 30
0.0
 11
2526.046485
 21
555.640405
 31
0.0
  0
LINE
  5
408
100
AcDbEntity
  8
2
  6
CENTER
 62
     1
100
AcDbLine
 10
2378.54648
 20
552.640409
 30
0.0
 11
2526.046485
 21
552.640409
 31
0.0
  0
LINE
  5
409
100
AcDbEntity
  8
2
  6
Continuous
 62
     1
100
AcDbLine
 10
2384.746482
 20
549.640409
 30
0.0
 11
2526.046485
 21
549.640409
 31
0.0
  0
LINE
  5
40A
100
AcDbEntity
  8
2
  6
Continuous
 62
     1
100
AcDbLine
 10
2381.746481
 20
536.640403
 30
0.0
 11
2526.046485
 21
536.640403
 31
0.0
  0
LINE
  5
40B
100
AcDbEntity
  8
2
  6
Continuous
 62
     1
100
AcDbLine
 10
2366.046485
 20
604.640409
 30
0.0
 11
2366.046485
 21
609.840409
 31
0.0
  0
LINE
  5
40C
100
AcDbEntity
  8
2
  6
Continuous
 62
     1
100
AcDbLine
 10
2366.046485
 20
609.840409
 30
0.0
 11
2526.046485
 21
609.840409
 31
0.0
  0
LINE
  5
40D
100
AcDbEntity
  8
2
  6
Continuous
 62
     1
100
AcDbLine
 10
2366.046485
 20
606.840408
 30
0.0
 11
2526.046485
 21
606.840408
 31
0.0
  0
LINE
  5
40E
100
AcDbEntity
  8
2
  6
Continuous
 62
     1
100
AcDbLine
 10
2366.046485
 20
606.040406
 30
0.0
 11
2526.046485
 21
606.040406
 31
0.0
  0
LINE
  5
40F
100
AcDbEntity
  8
2
  6
Continuous
 62
     1
100
AcDbLine
 10
2718.546493
 20
584.640411
 30
0.0
 11
2718.546493
 21
604.640409
 31
0.0
  0
LINE
  5
410
100
AcDbEntity
  8
2
  6
CENTER
 62
     1
100
AcDbLine
 10
2698.546494
 20
617.440408
 30
0.0
 11
2698.546494
 21
568.64041
 31
0.0
  0
LINE
  5
411
100
AcDbEntity
  8
2
  6
CENTER
 62
     1
100
AcDbLine
 10
2698.546494
 20
572.34041
 30
0.0
 11
2698.546494
 21
617.440408
 31
0.0
  0
LINE
  5
412
100
AcDbEntity
  8
2
  6
Continuous
 62
     1
100
AcDbLine
 10
2718.546493
 20
604.640409
 30
0.0
 11
2526.046485
 21
604.640409
 31
0.0
  0
LINE
  5
413
100
AcDbEntity
  8
2
  6
Continuous
 62
     1
100
AcDbLine
 10
2526.046485
 20
584.640411
 30
0.0
 11
2718.546493
 21
584.640411
 31
0.0
  0
ARC
  5
414
100
AcDbEntity
  8
2
  6
Continuous
 62
     1
100
AcDbCircle
 10
2670.546484
 20
568.64041
 30
0.0
 40
4.500001
100
AcDbArc
 50
-35.088356
 51
32.29148
  0
ARC
  5
415
100
AcDbEntity
  8
2
  6
Continuous
 62
     1
100
AcDbCircle
 10
2667.346488
 20
552.640409
 30
0.0
 40
3.000001
100
AcDbArc
 50
-89.977713
 51
89.98833
  0
LINE
  5
416
100
AcDbEntity
  8
2
  6
Continuous
 62
     1
100
AcDbLine
 10
2665.846488
 20
555.640405
 30
0.0
 11
2674.146492
 21
566.140408
 31
0.0
  0
LINE
  5
417
100
AcDbEntity
  8
2
  6
Continuous
 62
     1
100
AcDbLine
 10
2674.146492
 20
539.140406
 30
0.0
 11
2665.846488
 21
549.640409
 31
0.0
  0
ARC
  5
418
100
AcDbEntity
  8
2
  6
Continuous
 62
     1
100
AcDbCircle
 10
2670.546484
 20
536.640403
 30
0.0
 40
4.500001
100
AcDbArc
 50
-35.088356
 51
32.29148
  0
LINE
  5
419
100
AcDbEntity
  8
2
  6
Continuous
 62
     1
100
AcDbLine
 10
2665.846488
 20
523.640409
 30
0.0
 11
2674.146492
 21
534.140406
 31
0.0
  0
LINE
  5
41A
100
AcDbEntity
  8
2
  6
Continuous
 62
     1
100
AcDbLine
 10
2674.146492
 20
539.140406
 30
0.0
 11
2665.846488
 21
549.640409
 31
0.0
  0
LINE
  5
41B
100
AcDbEntity
  8
2
  6
Continuous
 62
     1
100
AcDbLine
 10
2663.498602
 20
584.640411
 30
0.0
 11
2674.146492
 21
571.140407
 31
0.0
  0
LINE
  5
41C
100
AcDbEntity
  8
2
  6
Continuous
 62
     1
100
AcDbLine
 10
2670.346489
 20
568.64041
 30
0.0
 11
2526.046485
 21
568.64041
 31
0.0
  0
LINE
  5
41D
100
AcDbEntity
  8
2
  6
Continuous
 62
     1
100
AcDbLine
 10
2667.346488
 20
555.640405
 30
0.0
 11
2526.046485
 21
555.640405
 31
0.0
  0
LINE
  5
41E
100
AcDbEntity
  8
2
  6
CENTER
 62
     1
100
AcDbLine
 10
2673.54649
 20
552.640409
 30
0.0
 11
2526.046485
 21
552.640409
 31
0.0
  0
LINE
  5
41F
100
AcDbEntity
  8
2
  6
Continuous
 62
     1
100
AcDbLine
 10
2667.346488
 20
549.640409
 30
0.0
 11
2526.046485
 21
549.640409
 31
0.0
  0
LINE
  5
420
100
AcDbEntity
  8
2
  6
Continuous
 62
     1
100
AcDbLine
 10
2670.346489
 20
536.640403
 30
0.0
 11
2526.046485
 21
536.640403
 31
0.0
  0
LINE
  5
421
100
AcDbEntity
  8
2
  6
Continuous
 62
     1
100
AcDbLine
 10
2686.046485
 20
604.640409
 30
0.0
 11
2686.046485
 21
609.840409
 31
0.0
  0
LINE
  5
422
100
AcDbEntity
  8
2
  6
Continuous
 62
     1
100
AcDbLine
 10
2686.046485
 20
609.840409
 30
0.0
 11
2526.046485
 21
609.840409
 31
0.0
  0
LINE
  5
423
100
AcDbEntity
  8
2
  6
Continuous
 62
     1
100
AcDbLine
 10
2686.046485
 20
606.840408
 30
0.0
 11
2526.046485
 21
606.840408
 31
0.0
  0
LINE
  5
424
100
AcDbEntity
  8
2
  6
Continuous
 62
     1
100
AcDbLine
 10
2686.046485
 20
606.040406
 30
0.0
 11
2526.046485
 21
606.040406
 31
0.0
  0
LINE
  5
425
100
AcDbEntity
  8
2
  6
CENTER
 62
     1
100
AcDbLine
 10
2526.046485
 20
648.047503
 30
0.0
 11
2526.046485
 21
201.026916
 31
0.0
  0
LINE
  5
426
100
AcDbEntity
  8
2
  6
CENTER
 62
     1
100
AcDbLine
 10
2377.046485
 20
264.640401
 30
0.0
 11
2377.046485
 21
537.780093
 31
0.0
  0
LINE
  5
427
100
AcDbEntity
  8
2
  6
CENTER
 62
     1
100
AcDbLine
 10
2675.046485
 20
264.640401
 30
0.0
 11
2675.046485
 21
537.780093
 31
0.0
  0
LINE
  5
428
100
AcDbEntity
  8
2
  6
Continuous
 62
     1
100
AcDbLine
 10
2917.648321
 20
625.60121
 30
0.0
 11
2917.548318
 21
625.60121
 31
0.0
  0
LINE
  5
429
100
AcDbEntity
  8
2
  6
CENTER
 62
     1
100
AcDbLine
 10
2734.181175
 20
972.079261
 30
0.0
 11
3212.911825
 21
972.079261
 31
0.0
  0
LINE
  5
42A
100
AcDbEntity
  8
2
  6
CENTER
 62
     1
100
AcDbLine
 10
2973.5465
 20
1211.444585
 30
0.0
 11
2973.5465
 21
732.713936
 31
0.0
  0
CIRCLE
  5
42B
100
AcDbEntity
  8
2
  6
PHANTOM
 62
     1
100
AcDbCircle
 10
2973.5465
 20
972.079261
 30
0.0
 40
172.5
  0
CIRCLE
  5
42C
100
AcDbEntity
  8
2
  6
Continuous
 62
     1
100
AcDbCircle
 10
2973.5465
 20
972.079261
 30
0.0
 40
192.5
  0
CIRCLE
  5
42D
100
AcDbEntity
  8
2
  6
Continuous
 62
     1
100
AcDbCircle
 10
2973.5465
 20
972.079261
 30
0.0
 40
160.0
  0
CIRCLE
  5
42E
100
AcDbEntity
  8
2
  6
Continuous
 62
     1
100
AcDbCircle
 10
2973.5465
 20
972.079261
 30
0.0
 40
133.5
  0
CIRCLE
  5
42F
100
AcDbEntity
  8
2
  6
HIDDEN
 62
     1
100
AcDbCircle
 10
2973.5465
 20
972.079261
 30
0.0
 40
135.0
  0
LINE
  5
430
100
AcDbEntity
  8
2
  6
CENTER
 62
     1
100
AcDbLine
 10
3139.494686
 20
1067.889491
 30
0.0
 11
3106.377078
 21
1048.769031
 31
0.0
  0
CIRCLE
  5
431
100
AcDbEntity
  8
2
  6
Continuous
 62
     1
100
AcDbCircle
 10
3122.935882
 20
1058.32926
 30
0.0
 40
11.5
  0
CIRCLE
  5
432
100
AcDbEntity
  8
2
  6
Continuous
 62
     1
100
AcDbCircle
 10
3146.0465
 20
972.079261
 30
0.0
 40
11.5
  0
LINE
  5
433
100
AcDbEntity
  8
2
  6
CENTER
 62
     1
100
AcDbLine
 10
3069.35673
 20
1138.027446
 30
0.0
 11
3050.23627
 21
1104.909839
 31
0.0
  0
CIRCLE
  5
434
100
AcDbEntity
  8
2
  6
Continuous
 62
     1
100
AcDbCircle
 10
3059.7965
 20
1121.468642
 30
0.0
 40
11.5
  0
CIRCLE
  5
435
100
AcDbEntity
  8
2
  6
Continuous
 62
     1
100
AcDbCircle
 10
2973.5465
 20
1144.579261
 30
0.0
 40
11.5
  0
LINE
  5
436
100
AcDbEntity
  8
2
  6
CENTER
 62
     1
100
AcDbLine
 10
2807.598315
 20
1067.889491
 30
0.0
 11
2840.715923
 21
1048.769031
 31
0.0
  0
CIRCLE
  5
437
100
AcDbEntity
  8
2
  6
Continuous
 62
     1
100
AcDbCircle
 10
2824.157119
 20
1058.32926
 30
0.0
 40
11.5
  0
CIRCLE
  5
438
100
AcDbEntity
  8
2
  6
Continuous
 62
     1
100
AcDbCircle
 10
2801.046501
 20
972.079261
 30
0.0
 40
11.5
  0
LINE
  5
439
100
AcDbEntity
  8
2
  6
CENTER
 62
     1
100
AcDbLine
 10
2877.736271
 20
1138.027446
 30
0.0
 11
2896.856731
 21
1104.909839
 31
0.0
  0
CIRCLE
  5
43A
100
AcDbEntity
  8
2
  6
Continuous
 62
     1
100
AcDbCircle
 10
2887.296501
 20
1121.468642
 30
0.0
 40
11.5
  0
LINE
  5
43B
100
AcDbEntity
  8
2
  6
CENTER
 62
     1
100
AcDbLine
 10
3139.494686
 20
876.269031
 30
0.0
 11
3106.377078
 21
895.38949
 31
0.0
  0
CIRCLE
  5
43C
100
AcDbEntity
  8
2
  6
Continuous
 62
     1
100
AcDbCircle
 10
3122.935882
 20
885.829261
 30
0.0
 40
11.5
  0
LINE
  5
43D
100
AcDbEntity
  8
2
  6
CENTER
 62
     1
100
AcDbLine
 10
3069.35673
 20
806.131075
 30
0.0
 11
3050.23627
 21
839.248682
 31
0.0
  0
CIRCLE
  5
43E
100
AcDbEntity
  8
2
  6
Continuous
 62
     1
100
AcDbCircle
 10
3059.7965
 20
822.689879
 30
0.0
 40
11.5
  0
CIRCLE
  5
43F
100
AcDbEntity
  8
2
  6
Continuous
 62
     1
100
AcDbCircle
 10
2973.5465
 20
799.579261
 30
0.0
 40
11.5
  0
LINE
  5
440
100
AcDbEntity
  8
2
  6
CENTER
 62
     1
100
AcDbLine
 10
2807.598315
 20
876.269031
 30
0.0
 11
2840.715923
 21
895.38949
 31
0.0
  0
CIRCLE
  5
441
100
AcDbEntity
  8
2
  6
Continuous
 62
     1
100
AcDbCircle
 10
2824.157119
 20
885.829261
 30
0.0
 40
11.5
  0
LINE
  5
442
100
AcDbEntity
  8
2
  6
CENTER
 62
     1
100
AcDbLine
 10
2877.736271
 20
806.131075
 30
0.0
 11
2896.856731
 21
839.248682
 31
0.0
  0
CIRCLE
  5
443
100
AcDbEntity
  8
2
  6
Continuous
 62
     1
100
AcDbCircle
 10
2887.296501
 20
822.689879
 30
0.0
 40
11.5
  0
LINE
  5
444
100
AcDbEntity
  8
2
  6
Continuous
 62
     1
100
AcDbLine
 10
2781.046493
 20
609.640411
 30
0.0
 11
2781.046493
 21
629.640409
 31
0.0
  0
LINE
  5
445
100
AcDbEntity
  8
2
  6
CENTER
 62
     1
100
AcDbLine
 10
2801.046491
 20
642.440408
 30
0.0
 11
2801.046491
 21
593.64041
 31
0.0
  0
LINE
  5
446
100
AcDbEntity
  8
2
  6
CENTER
 62
     1
100
AcDbLine
 10
2801.046491
 20
597.34041
 30
0.0
 11
2801.046491
 21
642.440408
 31
0.0
  0
LINE
  5
447
100
AcDbEntity
  8
2
  6
Continuous
 62
     1
100
AcDbLine
 10
2781.046493
 20
629.640409
 30
0.0
 11
2973.5465
 21
629.640409
 31
0.0
  0
LINE
  5
448
100
AcDbEntity
  8
2
  6
Continuous
 62
     1
100
AcDbLine
 10
2973.5465
 20
609.640411
 30
0.0
 11
2781.046493
 21
609.640411
 31
0.0
  0
ARC
  5
449
100
AcDbEntity
  8
2
  6
Continuous
 62
     1
100
AcDbCircle
 10
2829.046501
 20
593.64041
 30
0.0
 40
4.500001
100
AcDbArc
 50
147.70852
 51
-144.911644
  0
ARC
  5
44A
100
AcDbEntity
  8
2
  6
Continuous
 62
     1
100
AcDbCircle
 10
2832.246497
 20
577.640409
 30
0.0
 40
3.000001
100
AcDbArc
 50
90.01167
 51
-90.022287
  0
LINE
  5
44B
100
AcDbEntity
  8
2
  6
Continuous
 62
     1
100
AcDbLine
 10
2833.746497
 20
580.640405
 30
0.0
 11
2825.446493
 21
591.140408
 31
0.0
  0
LINE
  5
44C
100
AcDbEntity
  8
2
  6
Continuous
 62
     1
100
AcDbLine
 10
2825.446493
 20
564.140406
 30
0.0
 11
2833.746497
 21
574.640409
 31
0.0
  0
ARC
  5
44D
100
AcDbEntity
  8
2
  6
Continuous
 62
     1
100
AcDbCircle
 10
2829.046501
 20
561.640403
 30
0.0
 40
4.500001
100
AcDbArc
 50
147.70852
 51
-144.911644
  0
LINE
  5
44E
100
AcDbEntity
  8
2
  6
Continuous
 62
     1
100
AcDbLine
 10
2833.746497
 20
548.640409
 30
0.0
 11
2825.446493
 21
559.140406
 31
0.0
  0
LINE
  5
44F
100
AcDbEntity
  8
2
  6
Continuous
 62
     1
100
AcDbLine
 10
2825.446493
 20
564.140406
 30
0.0
 11
2833.746497
 21
574.640409
 31
0.0
  0
LINE
  5
450
100
AcDbEntity
  8
2
  6
Continuous
 62
     1
100
AcDbLine
 10
2836.094383
 20
609.640411
 30
0.0
 11
2825.446493
 21
596.140407
 31
0.0
  0
LINE
  5
451
100
AcDbEntity
  8
2
  6
Continuous
 62
     1
100
AcDbLine
 10
2829.246496
 20
593.64041
 30
0.0
 11
2973.5465
 21
593.64041
 31
0.0
  0
LINE
  5
452
100
AcDbEntity
  8
2
  6
Continuous
 62
     1
100
AcDbLine
 10
2832.246497
 20
580.640405
 30
0.0
 11
2973.5465
 21
580.640405
 31
0.0
  0
LINE
  5
453
100
AcDbEntity
  8
2
  6
CENTER
 62
     1
100
AcDbLine
 10
2826.046495
 20
577.640409
 30
0.0
 11
2973.5465
 21
577.640409
 31
0.0
  0
LINE
  5
454
100
AcDbEntity
  8
2
  6
Continuous
 62
     1
100
AcDbLine
 10
2832.246497
 20
574.640409
 30
0.0
 11
2973.5465
 21
574.640409
 31
0.0
  0
LINE
  5
455
100
AcDbEntity
  8
2
  6
Continuous
 62
     1
100
AcDbLine
 10
2829.246496
 20
561.640403
 30
0.0
 11
2973.5465
 21
561.640403
 31
0.0
  0
LINE
  5
456
100
AcDbEntity
  8
2
  6
Continuous
 62
     1
100
AcDbLine
 10
2813.5465
 20
629.640409
 30
0.0
 11
2813.5465
 21
634.840409
 31
0.0
  0
LINE
  5
457
100
AcDbEntity
  8
2
  6
Continuous
 62
     1
100
AcDbLine
 10
2813.5465
 20
634.840409
 30
0.0
 11
2973.5465
 21
634.840409
 31
0.0
  0
LINE
  5
458
100
AcDbEntity
  8
2
  6
Continuous
 62
     1
100
AcDbLine
 10
2813.5465
 20
631.840408
 30
0.0
 11
2973.5465
 21
631.840408
 31
0.0
  0
LINE
  5
459
100
AcDbEntity
  8
2
  6
Continuous
 62
     1
100
AcDbLine
 10
2813.5465
 20
631.040406
 30
0.0
 11
2973.5465
 21
631.040406
 31
0.0
  0
LINE
  5
45A
100
AcDbEntity
  8
2
  6
Continuous
 62
     1
100
AcDbLine
 10
3166.046507
 20
609.640411
 30
0.0
 11
3166.046507
 21
629.640409
 31
0.0
  0
LINE
  5
45B
100
AcDbEntity
  8
2
  6
CENTER
 62
     1
100
AcDbLine
 10
3146.046509
 20
642.440408
 30
0.0
 11
3146.046509
 21
593.64041
 31
0.0
  0
LINE
  5
45C
100
AcDbEntity
  8
2
  6
CENTER
 62
     1
100
AcDbLine
 10
3146.046509
 20
597.34041
 30
0.0
 11
3146.046509
 21
642.440408
 31
0.0
  0
LINE
  5
45D
100
AcDbEntity
  8
2
  6
Continuous
 62
     1
100
AcDbLine
 10
3166.046507
 20
629.640409
 30
0.0
 11
2973.5465
 21
629.640409
 31
0.0
  0
LINE
  5
45E
100
AcDbEntity
  8
2
  6
Continuous
 62
     1
100
AcDbLine
 10
2973.5465
 20
609.640411
 30
0.0
 11
3166.046507
 21
609.640411
 31
0.0
  0
ARC
  5
45F
100
AcDbEntity
  8
2
  6
Continuous
 62
     1
100
AcDbCircle
 10
3118.046499
 20
593.64041
 30
0.0
 40
4.500001
100
AcDbArc
 50
-35.088356
 51
32.29148
  0
ARC
  5
460
100
AcDbEntity
  8
2
  6
Continuous
 62
     1
100
AcDbCircle
 10
3114.846503
 20
577.640409
 30
0.0
 40
3.000001
100
AcDbArc
 50
-89.977713
 51
89.98833
  0
LINE
  5
461
100
AcDbEntity
  8
2
  6
Continuous
 62
     1
100
AcDbLine
 10
3113.346502
 20
580.640405
 30
0.0
 11
3121.646506
 21
591.140408
 31
0.0
  0
LINE
  5
462
100
AcDbEntity
  8
2
  6
Continuous
 62
     1
100
AcDbLine
 10
3121.646506
 20
564.140406
 30
0.0
 11
3113.346502
 21
574.640409
 31
0.0
  0
ARC
  5
463
100
AcDbEntity
  8
2
  6
Continuous
 62
     1
100
AcDbCircle
 10
3118.046499
 20
561.640403
 30
0.0
 40
4.500001
100
AcDbArc
 50
-35.088356
 51
32.29148
  0
LINE
  5
464
100
AcDbEntity
  8
2
  6
Continuous
 62
     1
100
AcDbLine
 10
3113.346502
 20
548.640409
 30
0.0
 11
3121.646506
 21
559.140406
 31
0.0
  0
LINE
  5
465
100
AcDbEntity
  8
2
  6
Continuous
 62
     1
100
AcDbLine
 10
3121.646506
 20
564.140406
 30
0.0
 11
3113.346502
 21
574.640409
 31
0.0
  0
LINE
  5
466
100
AcDbEntity
  8
2
  6
Continuous
 62
     1
100
AcDbLine
 10
3110.998616
 20
609.640411
 30
0.0
 11
3121.646506
 21
596.140407
 31
0.0
  0
LINE
  5
467
100
AcDbEntity
  8
2
  6
Continuous
 62
     1
100
AcDbLine
 10
3117.846504
 20
593.64041
 30
0.0
 11
2973.5465
 21
593.64041
 31
0.0
  0
LINE
  5
468
100
AcDbEntity
  8
2
  6
Continuous
 62
     1
100
AcDbLine
 10
3114.846503
 20
580.640405
 30
0.0
 11
2973.5465
 21
580.640405
 31
0.0
  0
LINE
  5
469
100
AcDbEntity
  8
2
  6
CENTER
 62
     1
100
AcDbLine
 10
3121.046505
 20
577.640409
 30
0.0
 11
2973.5465
 21
577.640409
 31
0.0
  0
LINE
  5
46A
100
AcDbEntity
  8
2
  6
Continuous
 62
     1
100
AcDbLine
 10
3114.846503
 20
574.640409
 30
0.0
 11
2973.5465
 21
574.640409
 31
0.0
  0
LINE
  5
46B
100
AcDbEntity
  8
2
  6
Continuous
 62
     1
100
AcDbLine
 10
3117.846504
 20
561.640403
 30
0.0
 11
2973.5465
 21
561.640403
 31
0.0
  0
LINE
  5
46C
100
AcDbEntity
  8
2
  6
Continuous
 62
     1
100
AcDbLine
 10
3133.5465
 20
629.640409
 30
0.0
 11
3133.5465
 21
634.840409
 31
0.0
  0
LINE
  5
46D
100
AcDbEntity
  8
2
  6
Continuous
 62
     1
100
AcDbLine
 10
3133.5465
 20
634.840409
 30
0.0
 11
2973.5465
 21
634.840409
 31
0.0
  0
LINE
  5
46E
100
AcDbEntity
  8
2
  6
Continuous
 62
     1
100
AcDbLine
 10
3133.5465
 20
631.840408
 30
0.0
 11
2973.5465
 21
631.840408
 31
0.0
  0
LINE
  5
46F
100
AcDbEntity
  8
2
  6
Continuous
 62
     1
100
AcDbLine
 10
3133.5465
 20
631.040406
 30
0.0
 11
2973.5465
 21
631.040406
 31
0.0
  0
LINE
  5
470
100
AcDbEntity
  8
2
  6
CENTER
 62
     1
100
AcDbLine
 10
2824.5465
 20
264.640401
 30
0.0
 11
2824.5465
 21
562.780093
 31
0.0
  0
LINE
  5
471
100
AcDbEntity
  8
2
  6
CENTER
 62
     1
100
AcDbLine
 10
3122.5465
 20
264.640401
 30
0.0
 11
3122.5465
 21
562.780093
 31
0.0
  0
LINE
  5
472
100
AcDbEntity
  8
2
  6
CENTER
 62
     1
100
AcDbLine
 10
2973.5465
 20
673.047503
 30
0.0
 11
2973.5465
 21
124.188935
 31
0.0
  0
LINE
  5
473
100
AcDbEntity
  8
2
  6
Continuous
 62
     1
100
AcDbLine
 10
3228.546507
 20
216.640405
 30
0.0
 11
3228.546507
 21
196.640401
 31
0.0
  0
LINE
  5
474
100
AcDbEntity
  8
2
  6
CENTER
 62
     1
100
AcDbLine
 10
3248.546505
 20
183.840402
 30
0.0
 11
3248.546505
 21
232.640406
 31
0.0
  0
LINE
  5
475
100
AcDbEntity
  8
2
  6
CENTER
 62
     1
100
AcDbLine
 10
3248.546505
 20
183.840402
 30
0.0
 11
3248.546505
 21
232.640406
 31
0.0
  0
LINE
  5
476
100
AcDbEntity
  8
2
  6
Continuous
 62
     1
100
AcDbLine
 10
3284.146509
 20
215.940406
 30
0.0
 11
3272.946508
 21
230.140403
 31
0.0
  0
ARC
  5
477
100
AcDbEntity
  8
2
  6
Continuous
 62
     1
100
AcDbCircle
 10
3276.546515
 20
232.640406
 30
0.0
 40
4.500001
100
AcDbArc
 50
144.901026
 51
-147.719137
  0
ARC
  5
478
100
AcDbEntity
  8
2
  6
Continuous
 62
     1
100
AcDbCircle
 10
3279.746511
 20
248.640406
 30
0.0
 40
3.000001
100
AcDbArc
 50
90.01167
 51
-90.022287
  0
LINE
  5
479
100
AcDbEntity
  8
2
  6
Continuous
 62
     1
100
AcDbLine
 10
3281.246512
 20
245.640405
 30
0.0
 11
3272.946508
 21
235.140403
 31
0.0
  0
LINE
  5
47A
100
AcDbEntity
  8
2
  6
Continuous
 62
     1
100
AcDbLine
 10
3272.946508
 20
262.140404
 30
0.0
 11
3281.246512
 21
251.640407
 31
0.0
  0
ARC
  5
47B
100
AcDbEntity
  8
2
  6
Continuous
 62
     1
100
AcDbCircle
 10
3276.546515
 20
264.640401
 30
0.0
 40
4.500001
100
AcDbArc
 50
144.901026
 51
-147.719137
  0
LINE
  5
47C
100
AcDbEntity
  8
2
  6
Continuous
 62
     1
100
AcDbLine
 10
3281.246512
 20
277.640407
 30
0.0
 11
3272.946508
 21
267.140404
 31
0.0
  0
LINE
  5
47D
100
AcDbEntity
  8
2
  6
Continuous
 62
     1
100
AcDbLine
 10
3272.946508
 20
262.140404
 30
0.0
 11
3281.246512
 21
251.640407
 31
0.0
  0
LINE
  5
47E
100
AcDbEntity
  8
2
  6
Continuous
 62
     1
100
AcDbLine
 10
3276.74651
 20
264.640401
 30
0.0
 11
3421.046514
 21
264.640401
 31
0.0
  0
LINE
  5
47F
100
AcDbEntity
  8
2
  6
Continuous
 62
     1
100
AcDbLine
 10
3279.746511
 20
251.640407
 30
0.0
 11
3421.046514
 21
251.640407
 31
0.0
  0
LINE
  5
480
100
AcDbEntity
  8
2
  6
CENTER
 62
     1
100
AcDbLine
 10
3273.546509
 20
248.640406
 30
0.0
 11
3421.046514
 21
248.640406
 31
0.0
  0
LINE
  5
481
100
AcDbEntity
  8
2
  6
Continuous
 62
     1
100
AcDbLine
 10
3279.746511
 20
245.640405
 30
0.0
 11
3421.046514
 21
245.640405
 31
0.0
  0
LINE
  5
482
100
AcDbEntity
  8
2
  6
Continuous
 62
     1
100
AcDbLine
 10
3276.74651
 20
232.640406
 30
0.0
 11
3421.046514
 21
232.640406
 31
0.0
  0
LINE
  5
483
100
AcDbEntity
  8
2
  6
Continuous
 62
     1
100
AcDbLine
 10
3421.046514
 20
216.640405
 30
0.0
 11
3228.546507
 21
216.640405
 31
0.0
  0
LINE
  5
484
100
AcDbEntity
  8
2
  6
Continuous
 62
     1
100
AcDbLine
 10
3261.046514
 20
196.640401
 30
0.0
 11
3261.046514
 21
189.840409
 31
0.0
  0
LINE
  5
485
100
AcDbEntity
  8
2
  6
Continuous
 62
     1
100
AcDbLine
 10
3228.546507
 20
196.640401
 30
0.0
 11
3421.046514
 21
196.640401
 31
0.0
  0
LINE
  5
486
100
AcDbEntity
  8
2
  6
Continuous
 62
     1
100
AcDbLine
 10
3261.046514
 20
194.340405
 30
0.0
 11
3421.046514
 21
194.340405
 31
0.0
  0
LINE
  5
487
100
AcDbEntity
  8
2
  6
Continuous
 62
     1
100
AcDbLine
 10
3261.046514
 20
192.840404
 30
0.0
 11
3421.046514
 21
192.840404
 31
0.0
  0
LINE
  5
488
100
AcDbEntity
  8
2
  6
Continuous
 62
     1
100
AcDbLine
 10
3261.046514
 20
189.840409
 30
0.0
 11
3421.046514
 21
189.840409
 31
0.0
  0
LINE
  5
489
100
AcDbEntity
  8
2
  6
Continuous
 62
     1
100
AcDbLine
 10
3613.546521
 20
216.640405
 30
0.0
 11
3613.546521
 21
196.640401
 31
0.0
  0
LINE
  5
48A
100
AcDbEntity
  8
2
  6
CENTER
 62
     1
100
AcDbLine
 10
3593.546523
 20
183.840402
 30
0.0
 11
3593.546523
 21
232.640406
 31
0.0
  0
LINE
  5
48B
100
AcDbEntity
  8
2
  6
CENTER
 62
     1
100
AcDbLine
 10
3593.546523
 20
183.840402
 30
0.0
 11
3593.546523
 21
232.640406
 31
0.0
  0
LINE
  5
48C
100
AcDbEntity
  8
2
  6
Continuous
 62
     1
100
AcDbLine
 10
3557.946519
 20
215.940406
 30
0.0
 11
3569.146521
 21
230.140403
 31
0.0
  0
ARC
  5
48D
100
AcDbEntity
  8
2
  6
Continuous
 62
     1
100
AcDbCircle
 10
3565.546513
 20
232.640406
 30
0.0
 40
4.500001
100
AcDbArc
 50
-32.280863
 51
35.098974
  0
ARC
  5
48E
100
AcDbEntity
  8
2
  6
Continuous
 62
     1
100
AcDbCircle
 10
3562.346517
 20
248.640406
 30
0.0
 40
3.000001
100
AcDbArc
 50
-89.977713
 51
89.98833
  0
LINE
  5
48F
100
AcDbEntity
  8
2
  6
Continuous
 62
     1
100
AcDbLine
 10
3560.846517
 20
245.640405
 30
0.0
 11
3569.146521
 21
235.140403
 31
0.0
  0
LINE
  5
490
100
AcDbEntity
  8
2
  6
Continuous
 62
     1
100
AcDbLine
 10
3569.146521
 20
262.140404
 30
0.0
 11
3560.846517
 21
251.640407
 31
0.0
  0
ARC
  5
491
100
AcDbEntity
  8
2
  6
Continuous
 62
     1
100
AcDbCircle
 10
3565.546513
 20
264.640401
 30
0.0
 40
4.500001
100
AcDbArc
 50
-32.280863
 51
35.098974
  0
LINE
  5
492
100
AcDbEntity
  8
2
  6
Continuous
 62
     1
100
AcDbLine
 10
3560.846517
 20
277.640407
 30
0.0
 11
3569.146521
 21
267.140404
 31
0.0
  0
LINE
  5
493
100
AcDbEntity
  8
2
  6
Continuous
 62
     1
100
AcDbLine
 10
3569.146521
 20
262.140404
 30
0.0
 11
3560.846517
 21
251.640407
 31
0.0
  0
LINE
  5
494
100
AcDbEntity
  8
2
  6
Continuous
 62
     1
100
AcDbLine
 10
3565.346518
 20
264.640401
 30
0.0
 11
3421.046514
 21
264.640401
 31
0.0
  0
LINE
  5
495
100
AcDbEntity
  8
2
  6
Continuous
 62
     1
100
AcDbLine
 10
3562.346517
 20
251.640407
 30
0.0
 11
3421.046514
 21
251.640407
 31
0.0
  0
LINE
  5
496
100
AcDbEntity
  8
2
  6
CENTER
 62
     1
100
AcDbLine
 10
3568.546519
 20
248.640406
 30
0.0
 11
3421.046514
 21
248.640406
 31
0.0
  0
LINE
  5
497
100
AcDbEntity
  8
2
  6
Continuous
 62
     1
100
AcDbLine
 10
3562.346517
 20
245.640405
 30
0.0
 11
3421.046514
 21
245.640405
 31
0.0
  0
LINE
  5
498
100
AcDbEntity
  8
2
  6
Continuous
 62
     1
100
AcDbLine
 10
3565.346518
 20
232.640406
 30
0.0
 11
3421.046514
 21
232.640406
 31
0.0
  0
LINE
  5
499
100
AcDbEntity
  8
2
  6
Continuous
 62
     1
100
AcDbLine
 10
3421.046514
 20
216.640405
 30
0.0
 11
3613.546521
 21
216.640405
 31
0.0
  0
LINE
  5
49A
100
AcDbEntity
  8
2
  6
Continuous
 62
     1
100
AcDbLine
 10
3581.046514
 20
196.640401
 30
0.0
 11
3581.046514
 21
189.840409
 31
0.0
  0
LINE
  5
49B
100
AcDbEntity
  8
2
  6
Continuous
 62
     1
100
AcDbLine
 10
3613.546521
 20
196.640401
 30
0.0
 11
3421.046514
 21
196.640401
 31
0.0
  0
LINE
  5
49C
100
AcDbEntity
  8
2
  6
Continuous
 62
     1
100
AcDbLine
 10
3581.046514
 20
194.340405
 30
0.0
 11
3421.046514
 21
194.340405
 31
0.0
  0
LINE
  5
49D
100
AcDbEntity
  8
2
  6
Continuous
 62
     1
100
AcDbLine
 10
3581.046514
 20
192.840404
 30
0.0
 11
3421.046514
 21
192.840404
 31
0.0
  0
LINE
  5
49E
100
AcDbEntity
  8
2
  6
Continuous
 62
     1
100
AcDbLine
 10
3581.046514
 20
189.840409
 30
0.0
 11
3421.046514
 21
189.840409
 31
0.0
  0
ARC
  5
49F
100
AcDbEntity
  8
2
  6
Continuous
 62
     1
100
AcDbCircle
 10
3299.825946
 20
155.240404
 30
0.0
 40
1.000002
100
AcDbArc
 50
-84.292709
 51
-0.010617
  0
LINE
  5
4A0
100
AcDbEntity
  8
2
  6
Continuous
 62
     1
100
AcDbLine
 10
3300.725945
 20
158.540408
 30
0.0
 11
3300.825943
 21
155.240404
 31
0.0
  0
ARC
  5
4A1
100
AcDbEntity
  8
2
  6
Continuous
 62
     1
100
AcDbCircle
 10
3300.225942
 20
152.040408
 30
0.0
 40
2.199999
100
AcDbArc
 50
97.7466
 51
-90.022287
  0
LINE
  5
4A2
100
AcDbEntity
  8
2
  6
Continuous
 62
     1
100
AcDbLine
 10
3300.725945
 20
158.540408
 30
0.0
 11
3421.046514
 21
158.540408
 31
0.0
  0
LINE
  5
4A3
100
AcDbEntity
  8
2
  6
Continuous
 62
     1
100
AcDbLine
 10
3300.225942
 20
154.14041
 30
0.0
 11
3421.046514
 21
154.14041
 31
0.0
  0
LINE
  5
4A4
100
AcDbEntity
  8
2
  6
Continuous
 62
     1
100
AcDbLine
 10
3300.225942
 20
152.040408
 30
0.0
 11
3421.046514
 21
152.040408
 31
0.0
  0
LINE
  5
4A5
100
AcDbEntity
  8
2
  6
Continuous
 62
     1
100
AcDbLine
 10
3300.225942
 20
149.840409
 30
0.0
 11
3421.046514
 21
149.840409
 31
0.0
  0
ARC
  5
4A6
100
AcDbEntity
  8
2
  6
Continuous
 62
     1
100
AcDbCircle
 10
3542.267082
 20
155.240404
 30
0.0
 40
1.000002
100
AcDbArc
 50
-179.989383
 51
-95.707291
  0
LINE
  5
4A7
100
AcDbEntity
  8
2
  6
Continuous
 62
     1
100
AcDbLine
 10
3541.367083
 20
158.540408
 30
0.0
 11
3541.267086
 21
155.240404
 31
0.0
  0
ARC
  5
4A8
100
AcDbEntity
  8
2
  6
Continuous
 62
     1
100
AcDbCircle
 10
3541.867087
 20
152.040408
 30
0.0
 40
2.199999
100
AcDbArc
 50
-89.977713
 51
82.2534
  0
LINE
  5
4A9
100
AcDbEntity
  8
2
  6
Continuous
 62
     1
100
AcDbLine
 10
3541.367083
 20
158.540408
 30
0.0
 11
3421.046514
 21
158.540408
 31
0.0
  0
LINE
  5
4AA
100
AcDbEntity
  8
2
  6
Continuous
 62
     1
100
AcDbLine
 10
3541.867087
 20
154.14041
 30
0.0
 11
3421.046514
 21
154.14041
 31
0.0
  0
LINE
  5
4AB
100
AcDbEntity
  8
2
  6
Continuous
 62
     1
100
AcDbLine
 10
3541.867087
 20
152.040408
 30
0.0
 11
3421.046514
 21
152.040408
 31
0.0
  0
LINE
  5
4AC
100
AcDbEntity
  8
2
  6
Continuous
 62
     1
100
AcDbLine
 10
3541.867087
 20
149.840409
 30
0.0
 11
3421.046514
 21
149.840409
 31
0.0
  0
LINE
  5
4AD
100
AcDbEntity
  8
2
  6
Continuous
 62
     1
100
AcDbLine
 10
3301.552388
 20
158.540408
 30
0.0
 11
3300.259
 21
189.840409
 31
0.0
  0
LINE
  5
4AE
100
AcDbEntity
  8
2
  6
Continuous
 62
     1
100
AcDbLine
 10
3540.54064
 20
158.540408
 30
0.0
 11
3541.834029
 21
189.840409
 31
0.0
  0
TEXT
  5
4AF
100
AcDbEntity
  8
2
  6
Continuous
 62
     1
100
AcDbText
 10
3361.369316
 20
88.529177
 30
0.0
 40
30.0
  1
250A　G8
 41
0.555556
 11
3361.369316
 21
88.529177
 31
0.0
100
AcDbText
 73
     1
  0
TEXT
  5
4B0
100
AcDbEntity
  8
2
  6
Continuous
 62
     1
100
AcDbText
 10
3359.212723
 20
51.221484
 30
0.0
 40
20.0
  1
 取付長 465
 41
0.705128
 11
3359.212723
 21
51.221484
 31
0.0
100
AcDbText
 73
     1
  0
TEXT
  5
4B1
100
AcDbEntity
  8
2
  6
Continuous
 62
     1
100
AcDbText
 10
3350.771628
 20
22.810736
 30
0.0
 40
20.0
  1
伸縮量　+31,-205
 41
0.645161
 11
3350.771628
 21
22.810736
 31
0.0
100
AcDbText
 73
     1
  0
LINE
  5
4B2
100
AcDbEntity
  8
2
  6
Continuous
 62
     1
100
AcDbLine
 10
3365.148335
 20
645.60121
 30
0.0
 11
3365.048332
 21
645.60121
 31
0.0
  0
LINE
  5
4B3
100
AcDbEntity
  8
2
  6
CENTER
 62
     1
100
AcDbLine
 10
3181.681189
 20
992.079261
 30
0.0
 11
3660.411839
 21
992.079261
 31
0.0
  0
LINE
  5
4B4
100
AcDbEntity
  8
2
  6
CENTER
 62
     1
100
AcDbLine
 10
3421.046514
 20
1231.444585
 30
0.0
 11
3421.046514
 21
752.713936
 31
0.0
  0
CIRCLE
  5
4B5
100
AcDbEntity
  8
2
  6
PHANTOM
 62
     1
100
AcDbCircle
 10
3421.046514
 20
992.079261
 30
0.0
 40
172.5
  0
CIRCLE
  5
4B6
100
AcDbEntity
  8
2
  6
Continuous
 62
     1
100
AcDbCircle
 10
3421.046514
 20
992.079261
 30
0.0
 40
192.5
  0
CIRCLE
  5
4B7
100
AcDbEntity
  8
2
  6
Continuous
 62
     1
100
AcDbCircle
 10
3421.046514
 20
992.079261
 30
0.0
 40
160.0
  0
CIRCLE
  5
4B8
100
AcDbEntity
  8
2
  6
Continuous
 62
     1
100
AcDbCircle
 10
3421.046514
 20
992.079261
 30
0.0
 40
133.5
  0
CIRCLE
  5
4B9
100
AcDbEntity
  8
2
  6
HIDDEN
 62
     1
100
AcDbCircle
 10
3421.046514
 20
992.079261
 30
0.0
 40
135.0
  0
LINE
  5
4BA
100
AcDbEntity
  8
2
  6
CENTER
 62
     1
100
AcDbLine
 10
3586.9947
 20
1087.889491
 30
0.0
 11
3553.877093
 21
1068.769031
 31
0.0
  0
CIRCLE
  5
4BB
100
AcDbEntity
  8
2
  6
Continuous
 62
     1
100
AcDbCircle
 10
3570.435896
 20
1078.32926
 30
0.0
 40
11.5
  0
CIRCLE
  5
4BC
100
AcDbEntity
  8
2
  6
Continuous
 62
     1
100
AcDbCircle
 10
3593.546514
 20
992.079261
 30
0.0
 40
11.5
  0
LINE
  5
4BD
100
AcDbEntity
  8
2
  6
CENTER
 62
     1
100
AcDbLine
 10
3516.856744
 20
1158.027446
 30
0.0
 11
3497.736284
 21
1124.909839
 31
0.0
  0
CIRCLE
  5
4BE
100
AcDbEntity
  8
2
  6
Continuous
 62
     1
100
AcDbCircle
 10
3507.296515
 20
1141.468642
 30
0.0
 40
11.5
  0
CIRCLE
  5
4BF
100
AcDbEntity
  8
2
  6
Continuous
 62
     1
100
AcDbCircle
 10
3421.046514
 20
1164.579261
 30
0.0
 40
11.5
  0
LINE
  5
4C0
100
AcDbEntity
  8
2
  6
CENTER
 62
     1
100
AcDbLine
 10
3255.098329
 20
1087.889491
 30
0.0
 11
3288.215937
 21
1068.769031
 31
0.0
  0
CIRCLE
  5
4C1
100
AcDbEntity
  8
2
  6
Continuous
 62
     1
100
AcDbCircle
 10
3271.657133
 20
1078.32926
 30
0.0
 40
11.5
  0
CIRCLE
  5
4C2
100
AcDbEntity
  8
2
  6
Continuous
 62
     1
100
AcDbCircle
 10
3248.546515
 20
992.079261
 30
0.0
 40
11.5
  0
LINE
  5
4C3
100
AcDbEntity
  8
2
  6
CENTER
 62
     1
100
AcDbLine
 10
3325.236285
 20
1158.027446
 30
0.0
 11
3344.356745
 21
1124.909839
 31
0.0
  0
CIRCLE
  5
4C4
100
AcDbEntity
  8
2
  6
Continuous
 62
     1
100
AcDbCircle
 10
3334.796515
 20
1141.468642
 30
0.0
 40
11.5
  0
LINE
  5
4C5
100
AcDbEntity
  8
2
  6
CENTER
 62
     1
100
AcDbLine
 10
3586.9947
 20
896.269031
 30
0.0
 11
3553.877093
 21
915.38949
 31
0.0
  0
CIRCLE
  5
4C6
100
AcDbEntity
  8
2
  6
Continuous
 62
     1
100
AcDbCircle
 10
3570.435896
 20
905.829261
 30
0.0
 40
11.5
  0
LINE
  5
4C7
100
AcDbEntity
  8
2
  6
CENTER
 62
     1
100
AcDbLine
 10
3516.856744
 20
826.131075
 30
0.0
 11
3497.736284
 21
859.248682
 31
0.0
  0
CIRCLE
  5
4C8
100
AcDbEntity
  8
2
  6
Continuous
 62
     1
100
AcDbCircle
 10
3507.296515
 20
842.689879
 30
0.0
 40
11.5
  0
CIRCLE
  5
4C9
100
AcDbEntity
  8
2
  6
Continuous
 62
     1
100
AcDbCircle
 10
3421.046514
 20
819.579261
 30
0.0
 40
11.5
  0
LINE
  5
4CA
100
AcDbEntity
  8
2
  6
CENTER
 62
     1
100
AcDbLine
 10
3255.098329
 20
896.269031
 30
0.0
 11
3288.215937
 21
915.38949
 31
0.0
  0
CIRCLE
  5
4CB
100
AcDbEntity
  8
2
  6
Continuous
 62
     1
100
AcDbCircle
 10
3271.657133
 20
905.829261
 30
0.0
 40
11.5
  0
LINE
  5
4CC
100
AcDbEntity
  8
2
  6
CENTER
 62
     1
100
AcDbLine
 10
3325.236285
 20
826.131075
 30
0.0
 11
3344.356745
 21
859.248682
 31
0.0
  0
CIRCLE
  5
4CD
100
AcDbEntity
  8
2
  6
Continuous
 62
     1
100
AcDbCircle
 10
3334.796515
 20
842.689879
 30
0.0
 40
11.5
  0
LINE
  5
4CE
100
AcDbEntity
  8
2
  6
Continuous
 62
     1
100
AcDbLine
 10
3228.546507
 20
629.640411
 30
0.0
 11
3228.546507
 21
649.640409
 31
0.0
  0
LINE
  5
4CF
100
AcDbEntity
  8
2
  6
CENTER
 62
     1
100
AcDbLine
 10
3248.546505
 20
662.440408
 30
0.0
 11
3248.546505
 21
613.64041
 31
0.0
  0
LINE
  5
4D0
100
AcDbEntity
  8
2
  6
CENTER
 62
     1
100
AcDbLine
 10
3248.546505
 20
617.34041
 30
0.0
 11
3248.546505
 21
662.440408
 31
0.0
  0
LINE
  5
4D1
100
AcDbEntity
  8
2
  6
Continuous
 62
     1
100
AcDbLine
 10
3228.546507
 20
649.640409
 30
0.0
 11
3421.046514
 21
649.640409
 31
0.0
  0
LINE
  5
4D2
100
AcDbEntity
  8
2
  6
Continuous
 62
     1
100
AcDbLine
 10
3421.046514
 20
629.640411
 30
0.0
 11
3228.546507
 21
629.640411
 31
0.0
  0
ARC
  5
4D3
100
AcDbEntity
  8
2
  6
Continuous
 62
     1
100
AcDbCircle
 10
3276.546515
 20
613.64041
 30
0.0
 40
4.500001
100
AcDbArc
 50
147.70852
 51
-144.911644
  0
ARC
  5
4D4
100
AcDbEntity
  8
2
  6
Continuous
 62
     1
100
AcDbCircle
 10
3279.746511
 20
597.640409
 30
0.0
 40
3.000001
100
AcDbArc
 50
90.01167
 51
-90.022287
  0
LINE
  5
4D5
100
AcDbEntity
  8
2
  6
Continuous
 62
     1
100
AcDbLine
 10
3281.246512
 20
600.640405
 30
0.0
 11
3272.946508
 21
611.140408
 31
0.0
  0
LINE
  5
4D6
100
AcDbEntity
  8
2
  6
Continuous
 62
     1
100
AcDbLine
 10
3272.946508
 20
584.140406
 30
0.0
 11
3281.246512
 21
594.640409
 31
0.0
  0
ARC
  5
4D7
100
AcDbEntity
  8
2
  6
Continuous
 62
     1
100
AcDbCircle
 10
3276.546515
 20
581.640403
 30
0.0
 40
4.500001
100
AcDbArc
 50
147.70852
 51
-144.911644
  0
LINE
  5
4D8
100
AcDbEntity
  8
2
  6
Continuous
 62
     1
100
AcDbLine
 10
3281.246512
 20
568.640409
 30
0.0
 11
3272.946508
 21
579.140406
 31
0.0
  0
LINE
  5
4D9
100
AcDbEntity
  8
2
  6
Continuous
 62
     1
100
AcDbLine
 10
3272.946508
 20
584.140406
 30
0.0
 11
3281.246512
 21
594.640409
 31
0.0
  0
LINE
  5
4DA
100
AcDbEntity
  8
2
  6
Continuous
 62
     1
100
AcDbLine
 10
3283.594398
 20
629.640411
 30
0.0
 11
3272.946508
 21
616.140407
 31
0.0
  0
LINE
  5
4DB
100
AcDbEntity
  8
2
  6
Continuous
 62
     1
100
AcDbLine
 10
3276.74651
 20
613.64041
 30
0.0
 11
3421.046514
 21
613.64041
 31
0.0
  0
LINE
  5
4DC
100
AcDbEntity
  8
2
  6
Continuous
 62
     1
100
AcDbLine
 10
3279.746511
 20
600.640405
 30
0.0
 11
3421.046514
 21
600.640405
 31
0.0
  0
LINE
  5
4DD
100
AcDbEntity
  8
2
  6
CENTER
 62
     1
100
AcDbLine
 10
3273.546509
 20
597.640409
 30
0.0
 11
3421.046514
 21
597.640409
 31
0.0
  0
LINE
  5
4DE
100
AcDbEntity
  8
2
  6
Continuous
 62
     1
100
AcDbLine
 10
3279.746511
 20
594.640409
 30
0.0
 11
3421.046514
 21
594.640409
 31
0.0
  0
LINE
  5
4DF
100
AcDbEntity
  8
2
  6
Continuous
 62
     1
100
AcDbLine
 10
3276.74651
 20
581.640403
 30
0.0
 11
3421.046514
 21
581.640403
 31
0.0
  0
LINE
  5
4E0
100
AcDbEntity
  8
2
  6
Continuous
 62
     1
100
AcDbLine
 10
3261.046514
 20
649.640409
 30
0.0
 11
3261.046514
 21
654.840409
 31
0.0
  0
LINE
  5
4E1
100
AcDbEntity
  8
2
  6
Continuous
 62
     1
100
AcDbLine
 10
3261.046514
 20
654.840409
 30
0.0
 11
3421.046514
 21
654.840409
 31
0.0
  0
LINE
  5
4E2
100
AcDbEntity
  8
2
  6
Continuous
 62
     1
100
AcDbLine
 10
3261.046514
 20
651.840408
 30
0.0
 11
3421.046514
 21
651.840408
 31
0.0
  0
LINE
  5
4E3
100
AcDbEntity
  8
2
  6
Continuous
 62
     1
100
AcDbLine
 10
3261.046514
 20
651.040406
 30
0.0
 11
3421.046514
 21
651.040406
 31
0.0
  0
LINE
  5
4E4
100
AcDbEntity
  8
2
  6
Continuous
 62
     1
100
AcDbLine
 10
3613.546521
 20
629.640411
 30
0.0
 11
3613.546521
 21
649.640409
 31
0.0
  0
LINE
  5
4E5
100
AcDbEntity
  8
2
  6
CENTER
 62
     1
100
AcDbLine
 10
3593.546523
 20
662.440408
 30
0.0
 11
3593.546523
 21
613.64041
 31
0.0
  0
LINE
  5
4E6
100
AcDbEntity
  8
2
  6
CENTER
 62
     1
100
AcDbLine
 10
3593.546523
 20
617.34041
 30
0.0
 11
3593.546523
 21
662.440408
 31
0.0
  0
LINE
  5
4E7
100
AcDbEntity
  8
2
  6
Continuous
 62
     1
100
AcDbLine
 10
3613.546521
 20
649.640409
 30
0.0
 11
3421.046514
 21
649.640409
 31
0.0
  0
LINE
  5
4E8
100
AcDbEntity
  8
2
  6
Continuous
 62
     1
100
AcDbLine
 10
3421.046514
 20
629.640411
 30
0.0
 11
3613.546521
 21
629.640411
 31
0.0
  0
ARC
  5
4E9
100
AcDbEntity
  8
2
  6
Continuous
 62
     1
100
AcDbCircle
 10
3565.546513
 20
613.64041
 30
0.0
 40
4.500001
100
AcDbArc
 50
-35.088356
 51
32.29148
  0
ARC
  5
4EA
100
AcDbEntity
  8
2
  6
Continuous
 62
     1
100
AcDbCircle
 10
3562.346517
 20
597.640409
 30
0.0
 40
3.000001
100
AcDbArc
 50
-89.977713
 51
89.98833
  0
LINE
  5
4EB
100
AcDbEntity
  8
2
  6
Continuous
 62
     1
100
AcDbLine
 10
3560.846517
 20
600.640405
 30
0.0
 11
3569.146521
 21
611.140408
 31
0.0
  0
LINE
  5
4EC
100
AcDbEntity
  8
2
  6
Continuous
 62
     1
100
AcDbLine
 10
3569.146521
 20
584.140406
 30
0.0
 11
3560.846517
 21
594.640409
 31
0.0
  0
ARC
  5
4ED
100
AcDbEntity
  8
2
  6
Continuous
 62
     1
100
AcDbCircle
 10
3565.546513
 20
581.640403
 30
0.0
 40
4.500001
100
AcDbArc
 50
-35.088356
 51
32.29148
  0
LINE
  5
4EE
100
AcDbEntity
  8
2
  6
Continuous
 62
     1
100
AcDbLine
 10
3560.846517
 20
568.640409
 30
0.0
 11
3569.146521
 21
579.140406
 31
0.0
  0
LINE
  5
4EF
100
AcDbEntity
  8
2
  6
Continuous
 62
     1
100
AcDbLine
 10
3569.146521
 20
584.140406
 30
0.0
 11
3560.846517
 21
594.640409
 31
0.0
  0
LINE
  5
4F0
100
AcDbEntity
  8
2
  6
Continuous
 62
     1
100
AcDbLine
 10
3558.498631
 20
629.640411
 30
0.0
 11
3569.146521
 21
616.140407
 31
0.0
  0
LINE
  5
4F1
100
AcDbEntity
  8
2
  6
Continuous
 62
     1
100
AcDbLine
 10
3565.346518
 20
613.64041
 30
0.0
 11
3421.046514
 21
613.64041
 31
0.0
  0
LINE
  5
4F2
100
AcDbEntity
  8
2
  6
Continuous
 62
     1
100
AcDbLine
 10
3562.346517
 20
600.640405
 30
0.0
 11
3421.046514
 21
600.640405
 31
0.0
  0
LINE
  5
4F3
100
AcDbEntity
  8
2
  6
CENTER
 62
     1
100
AcDbLine
 10
3568.546519
 20
597.640409
 30
0.0
 11
3421.046514
 21
597.640409
 31
0.0
  0
LINE
  5
4F4
100
AcDbEntity
  8
2
  6
Continuous
 62
     1
100
AcDbLine
 10
3562.346517
 20
594.640409
 30
0.0
 11
3421.046514
 21
594.640409
 31
0.0
  0
LINE
  5
4F5
100
AcDbEntity
  8
2
  6
Continuous
 62
     1
100
AcDbLine
 10
3565.346518
 20
581.640403
 30
0.0
 11
3421.046514
 21
581.640403
 31
0.0
  0
LINE
  5
4F6
100
AcDbEntity
  8
2
  6
Continuous
 62
     1
100
AcDbLine
 10
3581.046514
 20
649.640409
 30
0.0
 11
3581.046514
 21
654.840409
 31
0.0
  0
LINE
  5
4F7
100
AcDbEntity
  8
2
  6
Continuous
 62
     1
100
AcDbLine
 10
3581.046514
 20
654.840409
 30
0.0
 11
3421.046514
 21
654.840409
 31
0.0
  0
LINE
  5
4F8
100
AcDbEntity
  8
2
  6
Continuous
 62
     1
100
AcDbLine
 10
3581.046514
 20
651.840408
 30
0.0
 11
3421.046514
 21
651.840408
 31
0.0
  0
LINE
  5
4F9
100
AcDbEntity
  8
2
  6
Continuous
 62
     1
100
AcDbLine
 10
3581.046514
 20
651.040406
 30
0.0
 11
3421.046514
 21
651.040406
 31
0.0
  0
LINE
  5
4FA
100
AcDbEntity
  8
2
  6
CENTER
 62
     1
100
AcDbLine
 10
3421.046514
 20
693.047503
 30
0.0
 11
3421.046514
 21
126.034676
 31
0.0
  0
LINE
  5
4FB
100
AcDbEntity
  8
2
  6
CENTER
 62
     1
100
AcDbLine
 10
3272.046514
 20
265.729854
 30
0.0
 11
3272.046514
 21
582.780093
 31
0.0
  0
LINE
  5
4FC
100
AcDbEntity
  8
2
  6
CENTER
 62
     1
100
AcDbLine
 10
3570.046514
 20
264.640401
 30
0.0
 11
3570.046514
 21
582.780093
 31
0.0
  0
LINE
  5
4FD
100
AcDbEntity
  8
2
  6
Continuous
 62
     1
100
AcDbLine
 10
3676.046521
 20
216.640405
 30
0.0
 11
3676.046521
 21
196.640401
 31
0.0
  0
LINE
  5
4FE
100
AcDbEntity
  8
2
  6
CENTER
 62
     1
100
AcDbLine
 10
3696.04652
 20
183.840402
 30
0.0
 11
3696.04652
 21
232.640406
 31
0.0
  0
LINE
  5
4FF
100
AcDbEntity
  8
2
  6
CENTER
 62
     1
100
AcDbLine
 10
3696.04652
 20
183.840402
 30
0.0
 11
3696.04652
 21
232.640406
 31
0.0
  0
LINE
  5
500
100
AcDbEntity
  8
2
  6
Continuous
 62
     1
100
AcDbLine
 10
3731.646524
 20
215.940406
 30
0.0
 11
3720.446522
 21
230.140403
 31
0.0
  0
ARC
  5
501
100
AcDbEntity
  8
2
  6
Continuous
 62
     1
100
AcDbCircle
 10
3724.04653
 20
232.640406
 30
0.0
 40
4.500001
100
AcDbArc
 50
144.901026
 51
-147.719137
  0
ARC
  5
502
100
AcDbEntity
  8
2
  6
Continuous
 62
     1
100
AcDbCircle
 10
3727.246526
 20
248.640406
 30
0.0
 40
3.000001
100
AcDbArc
 50
90.01167
 51
-90.022287
  0
LINE
  5
503
100
AcDbEntity
  8
2
  6
Continuous
 62
     1
100
AcDbLine
 10
3728.746526
 20
245.640405
 30
0.0
 11
3720.446522
 21
235.140403
 31
0.0
  0
LINE
  5
504
100
AcDbEntity
  8
2
  6
Continuous
 62
     1
100
AcDbLine
 10
3720.446522
 20
262.140404
 30
0.0
 11
3728.746526
 21
251.640407
 31
0.0
  0
ARC
  5
505
100
AcDbEntity
  8
2
  6
Continuous
 62
     1
100
AcDbCircle
 10
3724.04653
 20
264.640401
 30
0.0
 40
4.500001
100
AcDbArc
 50
144.901026
 51
-147.719137
  0
LINE
  5
506
100
AcDbEntity
  8
2
  6
Continuous
 62
     1
100
AcDbLine
 10
3728.746526
 20
277.640407
 30
0.0
 11
3720.446522
 21
267.140404
 31
0.0
  0
LINE
  5
507
100
AcDbEntity
  8
2
  6
Continuous
 62
     1
100
AcDbLine
 10
3720.446522
 20
262.140404
 30
0.0
 11
3728.746526
 21
251.640407
 31
0.0
  0
LINE
  5
508
100
AcDbEntity
  8
2
  6
Continuous
 62
     1
100
AcDbLine
 10
3724.246525
 20
264.640401
 30
0.0
 11
3868.546529
 21
264.640401
 31
0.0
  0
LINE
  5
509
100
AcDbEntity
  8
2
  6
Continuous
 62
     1
100
AcDbLine
 10
3727.246526
 20
251.640407
 30
0.0
 11
3868.546529
 21
251.640407
 31
0.0
  0
LINE
  5
50A
100
AcDbEntity
  8
2
  6
CENTER
 62
     1
100
AcDbLine
 10
3721.046524
 20
248.640406
 30
0.0
 11
3868.546529
 21
248.640406
 31
0.0
  0
LINE
  5
50B
100
AcDbEntity
  8
2
  6
Continuous
 62
     1
100
AcDbLine
 10
3727.246526
 20
245.640405
 30
0.0
 11
3868.546529
 21
245.640405
 31
0.0
  0
LINE
  5
50C
100
AcDbEntity
  8
2
  6
Continuous
 62
     1
100
AcDbLine
 10
3724.246525
 20
232.640406
 30
0.0
 11
3868.546529
 21
232.640406
 31
0.0
  0
LINE
  5
50D
100
AcDbEntity
  8
2
  6
Continuous
 62
     1
100
AcDbLine
 10
3868.546529
 20
216.640405
 30
0.0
 11
3676.046521
 21
216.640405
 31
0.0
  0
LINE
  5
50E
100
AcDbEntity
  8
2
  6
Continuous
 62
     1
100
AcDbLine
 10
3708.546529
 20
196.640401
 30
0.0
 11
3708.546529
 21
189.840409
 31
0.0
  0
LINE
  5
50F
100
AcDbEntity
  8
2
  6
Continuous
 62
     1
100
AcDbLine
 10
3676.046521
 20
196.640401
 30
0.0
 11
3868.546529
 21
196.640401
 31
0.0
  0
LINE
  5
510
100
AcDbEntity
  8
2
  6
Continuous
 62
     1
100
AcDbLine
 10
3708.546529
 20
194.340405
 30
0.0
 11
3868.546529
 21
194.340405
 31
0.0
  0
LINE
  5
511
100
AcDbEntity
  8
2
  6
Continuous
 62
     1
100
AcDbLine
 10
3708.546529
 20
192.840404
 30
0.0
 11
3868.546529
 21
192.840404
 31
0.0
  0
LINE
  5
512
100
AcDbEntity
  8
2
  6
Continuous
 62
     1
100
AcDbLine
 10
3708.546529
 20
189.840409
 30
0.0
 11
3868.546529
 21
189.840409
 31
0.0
  0
LINE
  5
513
100
AcDbEntity
  8
2
  6
Continuous
 62
     1
100
AcDbLine
 10
4061.046536
 20
216.640405
 30
0.0
 11
4061.046536
 21
196.640401
 31
0.0
  0
LINE
  5
514
100
AcDbEntity
  8
2
  6
CENTER
 62
     1
100
AcDbLine
 10
4041.046538
 20
183.840402
 30
0.0
 11
4041.046538
 21
232.640406
 31
0.0
  0
LINE
  5
515
100
AcDbEntity
  8
2
  6
CENTER
 62
     1
100
AcDbLine
 10
4041.046538
 20
183.840402
 30
0.0
 11
4041.046538
 21
232.640406
 31
0.0
  0
LINE
  5
516
100
AcDbEntity
  8
2
  6
Continuous
 62
     1
100
AcDbLine
 10
4005.446533
 20
215.940406
 30
0.0
 11
4016.646535
 21
230.140403
 31
0.0
  0
ARC
  5
517
100
AcDbEntity
  8
2
  6
Continuous
 62
     1
100
AcDbCircle
 10
4013.046527
 20
232.640406
 30
0.0
 40
4.500001
100
AcDbArc
 50
-32.280863
 51
35.098974
  0
ARC
  5
518
100
AcDbEntity
  8
2
  6
Continuous
 62
     1
100
AcDbCircle
 10
4009.846532
 20
248.640406
 30
0.0
 40
3.000001
100
AcDbArc
 50
-89.977713
 51
89.98833
  0
LINE
  5
519
100
AcDbEntity
  8
2
  6
Continuous
 62
     1
100
AcDbLine
 10
4008.346531
 20
245.640405
 30
0.0
 11
4016.646535
 21
235.140403
 31
0.0
  0
LINE
  5
51A
100
AcDbEntity
  8
2
  6
Continuous
 62
     1
100
AcDbLine
 10
4016.646535
 20
262.140404
 30
0.0
 11
4008.346531
 21
251.640407
 31
0.0
  0
ARC
  5
51B
100
AcDbEntity
  8
2
  6
Continuous
 62
     1
100
AcDbCircle
 10
4013.046527
 20
264.640401
 30
0.0
 40
4.500001
100
AcDbArc
 50
-32.280863
 51
35.098974
  0
LINE
  5
51C
100
AcDbEntity
  8
2
  6
Continuous
 62
     1
100
AcDbLine
 10
4008.346531
 20
277.640407
 30
0.0
 11
4016.646535
 21
267.140404
 31
0.0
  0
LINE
  5
51D
100
AcDbEntity
  8
2
  6
Continuous
 62
     1
100
AcDbLine
 10
4016.646535
 20
262.140404
 30
0.0
 11
4008.346531
 21
251.640407
 31
0.0
  0
LINE
  5
51E
100
AcDbEntity
  8
2
  6
Continuous
 62
     1
100
AcDbLine
 10
4012.846533
 20
264.640401
 30
0.0
 11
3868.546529
 21
264.640401
 31
0.0
  0
LINE
  5
51F
100
AcDbEntity
  8
2
  6
Continuous
 62
     1
100
AcDbLine
 10
4009.846532
 20
251.640407
 30
0.0
 11
3868.546529
 21
251.640407
 31
0.0
  0
LINE
  5
520
100
AcDbEntity
  8
2
  6
CENTER
 62
     1
100
AcDbLine
 10
4016.046534
 20
248.640406
 30
0.0
 11
3868.546529
 21
248.640406
 31
0.0
  0
LINE
  5
521
100
AcDbEntity
  8
2
  6
Continuous
 62
     1
100
AcDbLine
 10
4009.846532
 20
245.640405
 30
0.0
 11
3868.546529
 21
245.640405
 31
0.0
  0
LINE
  5
522
100
AcDbEntity
  8
2
  6
Continuous
 62
     1
100
AcDbLine
 10
4012.846533
 20
232.640406
 30
0.0
 11
3868.546529
 21
232.640406
 31
0.0
  0
LINE
  5
523
100
AcDbEntity
  8
2
  6
Continuous
 62
     1
100
AcDbLine
 10
3868.546529
 20
216.640405
 30
0.0
 11
4061.046536
 21
216.640405
 31
0.0
  0
LINE
  5
524
100
AcDbEntity
  8
2
  6
Continuous
 62
     1
100
AcDbLine
 10
4028.546529
 20
196.640401
 30
0.0
 11
4028.546529
 21
189.840409
 31
0.0
  0
LINE
  5
525
100
AcDbEntity
  8
2
  6
Continuous
 62
     1
100
AcDbLine
 10
4061.046536
 20
196.640401
 30
0.0
 11
3868.546529
 21
196.640401
 31
0.0
  0
LINE
  5
526
100
AcDbEntity
  8
2
  6
Continuous
 62
     1
100
AcDbLine
 10
4028.546529
 20
194.340405
 30
0.0
 11
3868.546529
 21
194.340405
 31
0.0
  0
LINE
  5
527
100
AcDbEntity
  8
2
  6
Continuous
 62
     1
100
AcDbLine
 10
4028.546529
 20
192.840404
 30
0.0
 11
3868.546529
 21
192.840404
 31
0.0
  0
LINE
  5
528
100
AcDbEntity
  8
2
  6
Continuous
 62
     1
100
AcDbLine
 10
4028.546529
 20
189.840409
 30
0.0
 11
3868.546529
 21
189.840409
 31
0.0
  0
ARC
  5
529
100
AcDbEntity
  8
2
  6
Continuous
 62
     1
100
AcDbCircle
 10
3747.325961
 20
155.240404
 30
0.0
 40
1.000002
100
AcDbArc
 50
-84.292709
 51
-0.010617
  0
LINE
  5
52A
100
AcDbEntity
  8
2
  6
Continuous
 62
     1
100
AcDbLine
 10
3748.22596
 20
158.540408
 30
0.0
 11
3748.325957
 21
155.240404
 31
0.0
  0
ARC
  5
52B
100
AcDbEntity
  8
2
  6
Continuous
 62
     1
100
AcDbCircle
 10
3747.725956
 20
152.040408
 30
0.0
 40
2.199999
100
AcDbArc
 50
97.7466
 51
-90.022287
  0
LINE
  5
52C
100
AcDbEntity
  8
2
  6
Continuous
 62
     1
100
AcDbLine
 10
3748.22596
 20
158.540408
 30
0.0
 11
3868.546529
 21
158.540408
 31
0.0
  0
LINE
  5
52D
100
AcDbEntity
  8
2
  6
Continuous
 62
     1
100
AcDbLine
 10
3747.725956
 20
154.14041
 30
0.0
 11
3868.546529
 21
154.14041
 31
0.0
  0
LINE
  5
52E
100
AcDbEntity
  8
2
  6
Continuous
 62
     1
100
AcDbLine
 10
3747.725956
 20
152.040408
 30
0.0
 11
3868.546529
 21
152.040408
 31
0.0
  0
LINE
  5
52F
100
AcDbEntity
  8
2
  6
Continuous
 62
     1
100
AcDbLine
 10
3747.725956
 20
149.840409
 30
0.0
 11
3868.546529
 21
149.840409
 31
0.0
  0
ARC
  5
530
100
AcDbEntity
  8
2
  6
Continuous
 62
     1
100
AcDbCircle
 10
3989.767097
 20
155.240404
 30
0.0
 40
1.000002
100
AcDbArc
 50
-179.989383
 51
-95.707291
  0
LINE
  5
531
100
AcDbEntity
  8
2
  6
Continuous
 62
     1
100
AcDbLine
 10
3988.867097
 20
158.540408
 30
0.0
 11
3988.7671
 21
155.240404
 31
0.0
  0
ARC
  5
532
100
AcDbEntity
  8
2
  6
Continuous
 62
     1
100
AcDbCircle
 10
3989.367101
 20
152.040408
 30
0.0
 40
2.199999
100
AcDbArc
 50
-89.977713
 51
82.2534
  0
LINE
  5
533
100
AcDbEntity
  8
2
  6
Continuous
 62
     1
100
AcDbLine
 10
3988.867097
 20
158.540408
 30
0.0
 11
3868.546529
 21
158.540408
 31
0.0
  0
LINE
  5
534
100
AcDbEntity
  8
2
  6
Continuous
 62
     1
100
AcDbLine
 10
3989.367101
 20
154.14041
 30
0.0
 11
3868.546529
 21
154.14041
 31
0.0
  0
LINE
  5
535
100
AcDbEntity
  8
2
  6
Continuous
 62
     1
100
AcDbLine
 10
3989.367101
 20
152.040408
 30
0.0
 11
3868.546529
 21
152.040408
 31
0.0
  0
LINE
  5
536
100
AcDbEntity
  8
2
  6
Continuous
 62
     1
100
AcDbLine
 10
3989.367101
 20
149.840409
 30
0.0
 11
3868.546529
 21
149.840409
 31
0.0
  0
LINE
  5
537
100
AcDbEntity
  8
2
  6
Continuous
 62
     1
100
AcDbLine
 10
3749.052403
 20
158.540408
 30
0.0
 11
3747.759014
 21
189.840409
 31
0.0
  0
LINE
  5
538
100
AcDbEntity
  8
2
  6
Continuous
 62
     1
100
AcDbLine
 10
3988.040655
 20
158.540408
 30
0.0
 11
3989.334043
 21
189.840409
 31
0.0
  0
LINE
  5
539
100
AcDbEntity
  8
2
  6
CENTER
 62
     1
100
AcDbLine
 10
3868.546529
 20
693.047503
 30
0.0
 11
3868.546529
 21
126.034676
 31
0.0
  0
TEXT
  5
53A
100
AcDbEntity
  8
2
  6
Continuous
 62
     1
100
AcDbText
 10
3808.86933
 20
88.529177
 30
0.0
 40
30.0
  1
250A　G9
 41
0.555556
 11
3808.86933
 21
88.529177
 31
0.0
100
AcDbText
 73
     1
  0
TEXT
  5
53B
100
AcDbEntity
  8
2
  6
Continuous
 62
     1
100
AcDbText
 10
3806.712737
 20
51.221484
 30
0.0
 40
20.0
  1
 取付長 488
 41
0.705128
 11
3806.712737
 21
51.221484
 31
0.0
100
AcDbText
 73
     1
  0
TEXT
  5
53C
100
AcDbEntity
  8
2
  6
Continuous
 62
     1
100
AcDbText
 10
3798.271643
 20
22.810736
 30
0.0
 40
20.0
  1
伸縮量　+48,-220
 41
0.645161
 11
3798.271643
 21
22.810736
 31
0.0
100
AcDbText
 73
     1
  0
LINE
  5
53D
100
AcDbEntity
  8
2
  6
Continuous
 62
     1
100
AcDbLine
 10
3812.64835
 20
668.60121
 30
0.0
 11
3812.548347
 21
668.60121
 31
0.0
  0
LINE
  5
53E
100
AcDbEntity
  8
2
  6
CENTER
 62
     1
100
AcDbLine
 10
3629.181204
 20
1015.079261
 30
0.0
 11
4107.911854
 21
1015.079261
 31
0.0
  0
LINE
  5
53F
100
AcDbEntity
  8
2
  6
CENTER
 62
     1
100
AcDbLine
 10
3868.546529
 20
1254.444585
 30
0.0
 11
3868.546529
 21
775.713936
 31
0.0
  0
CIRCLE
  5
540
100
AcDbEntity
  8
2
  6
PHANTOM
 62
     1
100
AcDbCircle
 10
3868.546529
 20
1015.079261
 30
0.0
 40
172.5
  0
CIRCLE
  5
541
100
AcDbEntity
  8
2
  6
Continuous
 62
     1
100
AcDbCircle
 10
3868.546529
 20
1015.079261
 30
0.0
 40
192.5
  0
CIRCLE
  5
542
100
AcDbEntity
  8
2
  6
Continuous
 62
     1
100
AcDbCircle
 10
3868.546529
 20
1015.079261
 30
0.0
 40
160.0
  0
CIRCLE
  5
543
100
AcDbEntity
  8
2
  6
Continuous
 62
     1
100
AcDbCircle
 10
3868.546529
 20
1015.079261
 30
0.0
 40
133.5
  0
CIRCLE
  5
544
100
AcDbEntity
  8
2
  6
HIDDEN
 62
     1
100
AcDbCircle
 10
3868.546529
 20
1015.079261
 30
0.0
 40
135.0
  0
LINE
  5
545
100
AcDbEntity
  8
2
  6
CENTER
 62
     1
100
AcDbLine
 10
4034.494715
 20
1110.889491
 30
0.0
 11
4001.377107
 21
1091.769031
 31
0.0
  0
CIRCLE
  5
546
100
AcDbEntity
  8
2
  6
Continuous
 62
     1
100
AcDbCircle
 10
4017.935911
 20
1101.32926
 30
0.0
 40
11.5
  0
CIRCLE
  5
547
100
AcDbEntity
  8
2
  6
Continuous
 62
     1
100
AcDbCircle
 10
4041.046529
 20
1015.079261
 30
0.0
 40
11.5
  0
LINE
  5
548
100
AcDbEntity
  8
2
  6
CENTER
 62
     1
100
AcDbLine
 10
3964.356759
 20
1181.027446
 30
0.0
 11
3945.236299
 21
1147.909839
 31
0.0
  0
CIRCLE
  5
549
100
AcDbEntity
  8
2
  6
Continuous
 62
     1
100
AcDbCircle
 10
3954.796529
 20
1164.468642
 30
0.0
 40
11.5
  0
CIRCLE
  5
54A
100
AcDbEntity
  8
2
  6
Continuous
 62
     1
100
AcDbCircle
 10
3868.546529
 20
1187.579261
 30
0.0
 40
11.5
  0
LINE
  5
54B
100
AcDbEntity
  8
2
  6
CENTER
 62
     1
100
AcDbLine
 10
3702.598344
 20
1110.889491
 30
0.0
 11
3735.715951
 21
1091.769031
 31
0.0
  0
CIRCLE
  5
54C
100
AcDbEntity
  8
2
  6
Continuous
 62
     1
100
AcDbCircle
 10
3719.157148
 20
1101.32926
 30
0.0
 40
11.5
  0
CIRCLE
  5
54D
100
AcDbEntity
  8
2
  6
Continuous
 62
     1
100
AcDbCircle
 10
3696.04653
 20
1015.079261
 30
0.0
 40
11.5
  0
LINE
  5
54E
100
AcDbEntity
  8
2
  6
CENTER
 62
     1
100
AcDbLine
 10
3772.7363
 20
1181.027446
 30
0.0
 11
3791.85676
 21
1147.909839
 31
0.0
  0
CIRCLE
  5
54F
100
AcDbEntity
  8
2
  6
Continuous
 62
     1
100
AcDbCircle
 10
3782.296529
 20
1164.468642
 30
0.0
 40
11.5
  0
LINE
  5
550
100
AcDbEntity
  8
2
  6
CENTER
 62
     1
100
AcDbLine
 10
4034.494715
 20
919.269031
 30
0.0
 11
4001.377107
 21
938.38949
 31
0.0
  0
CIRCLE
  5
551
100
AcDbEntity
  8
2
  6
Continuous
 62
     1
100
AcDbCircle
 10
4017.935911
 20
928.829261
 30
0.0
 40
11.5
  0
LINE
  5
552
100
AcDbEntity
  8
2
  6
CENTER
 62
     1
100
AcDbLine
 10
3964.356759
 20
849.131075
 30
0.0
 11
3945.236299
 21
882.248682
 31
0.0
  0
CIRCLE
  5
553
100
AcDbEntity
  8
2
  6
Continuous
 62
     1
100
AcDbCircle
 10
3954.796529
 20
865.689879
 30
0.0
 40
11.5
  0
CIRCLE
  5
554
100
AcDbEntity
  8
2
  6
Continuous
 62
     1
100
AcDbCircle
 10
3868.546529
 20
842.579261
 30
0.0
 40
11.5
  0
LINE
  5
555
100
AcDbEntity
  8
2
  6
CENTER
 62
     1
100
AcDbLine
 10
3702.598344
 20
919.269031
 30
0.0
 11
3735.715951
 21
938.38949
 31
0.0
  0
CIRCLE
  5
556
100
AcDbEntity
  8
2
  6
Continuous
 62
     1
100
AcDbCircle
 10
3719.157148
 20
928.829261
 30
0.0
 40
11.5
  0
LINE
  5
557
100
AcDbEntity
  8
2
  6
CENTER
 62
     1
100
AcDbLine
 10
3772.7363
 20
849.131075
 30
0.0
 11
3791.85676
 21
882.248682
 31
0.0
  0
CIRCLE
  5
558
100
AcDbEntity
  8
2
  6
Continuous
 62
     1
100
AcDbCircle
 10
3782.296529
 20
865.689879
 30
0.0
 40
11.5
  0
LINE
  5
559
100
AcDbEntity
  8
2
  6
Continuous
 62
     1
100
AcDbLine
 10
3676.046521
 20
652.640411
 30
0.0
 11
3676.046521
 21
672.640409
 31
0.0
  0
LINE
  5
55A
100
AcDbEntity
  8
2
  6
CENTER
 62
     1
100
AcDbLine
 10
3696.04652
 20
685.440408
 30
0.0
 11
3696.04652
 21
636.64041
 31
0.0
  0
LINE
  5
55B
100
AcDbEntity
  8
2
  6
CENTER
 62
     1
100
AcDbLine
 10
3696.04652
 20
640.34041
 30
0.0
 11
3696.04652
 21
685.440408
 31
0.0
  0
LINE
  5
55C
100
AcDbEntity
  8
2
  6
Continuous
 62
     1
100
AcDbLine
 10
3676.046521
 20
672.640409
 30
0.0
 11
3868.546529
 21
672.640409
 31
0.0
  0
LINE
  5
55D
100
AcDbEntity
  8
2
  6
Continuous
 62
     1
100
AcDbLine
 10
3868.546529
 20
652.640411
 30
0.0
 11
3676.046521
 21
652.640411
 31
0.0
  0
ARC
  5
55E
100
AcDbEntity
  8
2
  6
Continuous
 62
     1
100
AcDbCircle
 10
3724.04653
 20
636.64041
 30
0.0
 40
4.500001
100
AcDbArc
 50
147.70852
 51
-144.911644
  0
ARC
  5
55F
100
AcDbEntity
  8
2
  6
Continuous
 62
     1
100
AcDbCircle
 10
3727.246526
 20
620.640409
 30
0.0
 40
3.000001
100
AcDbArc
 50
90.01167
 51
-90.022287
  0
LINE
  5
560
100
AcDbEntity
  8
2
  6
Continuous
 62
     1
100
AcDbLine
 10
3728.746526
 20
623.640405
 30
0.0
 11
3720.446522
 21
634.140408
 31
0.0
  0
LINE
  5
561
100
AcDbEntity
  8
2
  6
Continuous
 62
     1
100
AcDbLine
 10
3720.446522
 20
607.140406
 30
0.0
 11
3728.746526
 21
617.640409
 31
0.0
  0
ARC
  5
562
100
AcDbEntity
  8
2
  6
Continuous
 62
     1
100
AcDbCircle
 10
3724.04653
 20
604.640403
 30
0.0
 40
4.500001
100
AcDbArc
 50
147.70852
 51
-144.911644
  0
LINE
  5
563
100
AcDbEntity
  8
2
  6
Continuous
 62
     1
100
AcDbLine
 10
3728.746526
 20
591.640409
 30
0.0
 11
3720.446522
 21
602.140406
 31
0.0
  0
LINE
  5
564
100
AcDbEntity
  8
2
  6
Continuous
 62
     1
100
AcDbLine
 10
3720.446522
 20
607.140406
 30
0.0
 11
3728.746526
 21
617.640409
 31
0.0
  0
LINE
  5
565
100
AcDbEntity
  8
2
  6
Continuous
 62
     1
100
AcDbLine
 10
3731.094412
 20
652.640411
 30
0.0
 11
3720.446522
 21
639.140407
 31
0.0
  0
LINE
  5
566
100
AcDbEntity
  8
2
  6
Continuous
 62
     1
100
AcDbLine
 10
3724.246525
 20
636.64041
 30
0.0
 11
3868.546529
 21
636.64041
 31
0.0
  0
LINE
  5
567
100
AcDbEntity
  8
2
  6
Continuous
 62
     1
100
AcDbLine
 10
3727.246526
 20
623.640405
 30
0.0
 11
3868.546529
 21
623.640405
 31
0.0
  0
LINE
  5
568
100
AcDbEntity
  8
2
  6
CENTER
 62
     1
100
AcDbLine
 10
3721.046524
 20
620.640409
 30
0.0
 11
3868.546529
 21
620.640409
 31
0.0
  0
LINE
  5
569
100
AcDbEntity
  8
2
  6
Continuous
 62
     1
100
AcDbLine
 10
3727.246526
 20
617.640409
 30
0.0
 11
3868.546529
 21
617.640409
 31
0.0
  0
LINE
  5
56A
100
AcDbEntity
  8
2
  6
Continuous
 62
     1
100
AcDbLine
 10
3724.246525
 20
604.640403
 30
0.0
 11
3868.546529
 21
604.640403
 31
0.0
  0
LINE
  5
56B
100
AcDbEntity
  8
2
  6
Continuous
 62
     1
100
AcDbLine
 10
3708.546529
 20
672.640409
 30
0.0
 11
3708.546529
 21
677.840409
 31
0.0
  0
LINE
  5
56C
100
AcDbEntity
  8
2
  6
Continuous
 62
     1
100
AcDbLine
 10
3708.546529
 20
677.840409
 30
0.0
 11
3868.546529
 21
677.840409
 31
0.0
  0
LINE
  5
56D
100
AcDbEntity
  8
2
  6
Continuous
 62
     1
100
AcDbLine
 10
3708.546529
 20
674.840408
 30
0.0
 11
3868.546529
 21
674.840408
 31
0.0
  0
LINE
  5
56E
100
AcDbEntity
  8
2
  6
Continuous
 62
     1
100
AcDbLine
 10
3708.546529
 20
674.040406
 30
0.0
 11
3868.546529
 21
674.040406
 31
0.0
  0
LINE
  5
56F
100
AcDbEntity
  8
2
  6
Continuous
 62
     1
100
AcDbLine
 10
4061.046536
 20
652.640411
 30
0.0
 11
4061.046536
 21
672.640409
 31
0.0
  0
LINE
  5
570
100
AcDbEntity
  8
2
  6
CENTER
 62
     1
100
AcDbLine
 10
4041.046538
 20
685.440408
 30
0.0
 11
4041.046538
 21
636.64041
 31
0.0
  0
LINE
  5
571
100
AcDbEntity
  8
2
  6
CENTER
 62
     1
100
AcDbLine
 10
4041.046538
 20
640.34041
 30
0.0
 11
4041.046538
 21
685.440408
 31
0.0
  0
LINE
  5
572
100
AcDbEntity
  8
2
  6
Continuous
 62
     1
100
AcDbLine
 10
4061.046536
 20
672.640409
 30
0.0
 11
3868.546529
 21
672.640409
 31
0.0
  0
LINE
  5
573
100
AcDbEntity
  8
2
  6
Continuous
 62
     1
100
AcDbLine
 10
3868.546529
 20
652.640411
 30
0.0
 11
4061.046536
 21
652.640411
 31
0.0
  0
ARC
  5
574
100
AcDbEntity
  8
2
  6
Continuous
 62
     1
100
AcDbCircle
 10
4013.046527
 20
636.64041
 30
0.0
 40
4.500001
100
AcDbArc
 50
-35.088356
 51
32.29148
  0
ARC
  5
575
100
AcDbEntity
  8
2
  6
Continuous
 62
     1
100
AcDbCircle
 10
4009.846532
 20
620.640409
 30
0.0
 40
3.000001
100
AcDbArc
 50
-89.977713
 51
89.98833
  0
LINE
  5
576
100
AcDbEntity
  8
2
  6
Continuous
 62
     1
100
AcDbLine
 10
4008.346531
 20
623.640405
 30
0.0
 11
4016.646535
 21
634.140408
 31
0.0
  0
LINE
  5
577
100
AcDbEntity
  8
2
  6
Continuous
 62
     1
100
AcDbLine
 10
4016.646535
 20
607.140406
 30
0.0
 11
4008.346531
 21
617.640409
 31
0.0
  0
ARC
  5
578
100
AcDbEntity
  8
2
  6
Continuous
 62
     1
100
AcDbCircle
 10
4013.046527
 20
604.640403
 30
0.0
 40
4.500001
100
AcDbArc
 50
-35.088356
 51
32.29148
  0
LINE
  5
579
100
AcDbEntity
  8
2
  6
Continuous
 62
     1
100
AcDbLine
 10
4008.346531
 20
591.640409
 30
0.0
 11
4016.646535
 21
602.140406
 31
0.0
  0
LINE
  5
57A
100
AcDbEntity
  8
2
  6
Continuous
 62
     1
100
AcDbLine
 10
4016.646535
 20
607.140406
 30
0.0
 11
4008.346531
 21
617.640409
 31
0.0
  0
LINE
  5
57B
100
AcDbEntity
  8
2
  6
Continuous
 62
     1
100
AcDbLine
 10
4005.998645
 20
652.640411
 30
0.0
 11
4016.646535
 21
639.140407
 31
0.0
  0
LINE
  5
57C
100
AcDbEntity
  8
2
  6
Continuous
 62
     1
100
AcDbLine
 10
4012.846533
 20
636.64041
 30
0.0
 11
3868.546529
 21
636.64041
 31
0.0
  0
LINE
  5
57D
100
AcDbEntity
  8
2
  6
Continuous
 62
     1
100
AcDbLine
 10
4009.846532
 20
623.640405
 30
0.0
 11
3868.546529
 21
623.640405
 31
0.0
  0
LINE
  5
57E
100
AcDbEntity
  8
2
  6
CENTER
 62
     1
100
AcDbLine
 10
4016.046534
 20
620.640409
 30
0.0
 11
3868.546529
 21
620.640409
 31
0.0
  0
LINE
  5
57F
100
AcDbEntity
  8
2
  6
Continuous
 62
     1
100
AcDbLine
 10
4009.846532
 20
617.640409
 30
0.0
 11
3868.546529
 21
617.640409
 31
0.0
  0
LINE
  5
580
100
AcDbEntity
  8
2
  6
Continuous
 62
     1
100
AcDbLine
 10
4012.846533
 20
604.640403
 30
0.0
 11
3868.546529
 21
604.640403
 31
0.0
  0
LINE
  5
581
100
AcDbEntity
  8
2
  6
Continuous
 62
     1
100
AcDbLine
 10
4028.546529
 20
672.640409
 30
0.0
 11
4028.546529
 21
677.840409
 31
0.0
  0
LINE
  5
582
100
AcDbEntity
  8
2
  6
Continuous
 62
     1
100
AcDbLine
 10
4028.546529
 20
677.840409
 30
0.0
 11
3868.546529
 21
677.840409
 31
0.0
  0
LINE
  5
583
100
AcDbEntity
  8
2
  6
Continuous
 62
     1
100
AcDbLine
 10
4028.546529
 20
674.840408
 30
0.0
 11
3868.546529
 21
674.840408
 31
0.0
  0
LINE
  5
584
100
AcDbEntity
  8
2
  6
Continuous
 62
     1
100
AcDbLine
 10
4028.546529
 20
674.040406
 30
0.0
 11
3868.546529
 21
674.040406
 31
0.0
  0
TEXT
  5
585
100
AcDbEntity
  8
2
  6
Continuous
 62
     1
100
AcDbText
 10
4248.869345
 20
88.529177
 30
0.0
 40
30.0
  1
250A　G10
 41
0.54878
 11
4248.869345
 21
88.529177
 31
0.0
100
AcDbText
 73
     1
  0
TEXT
  5
586
100
AcDbEntity
  8
2
  6
Continuous
 62
     1
100
AcDbText
 10
4254.212751
 20
51.221484
 30
0.0
 40
20.0
  1
 取付長 500
 41
0.705128
 11
4254.212751
 21
51.221484
 31
0.0
100
AcDbText
 73
     1
  0
TEXT
  5
587
100
AcDbEntity
  8
2
  6
Continuous
 62
     1
100
AcDbText
 10
4245.771657
 20
22.810736
 30
0.0
 40
20.0
  1
伸縮量　+48,-235
 41
0.645161
 11
4245.771657
 21
22.810736
 31
0.0
100
AcDbText
 73
     1
  0
LINE
  5
588
100
AcDbEntity
  8
2
  6
Continuous
 62
     1
100
AcDbLine
 10
4123.546536
 20
216.640405
 30
0.0
 11
4123.546536
 21
196.640401
 31
0.0
  0
LINE
  5
589
100
AcDbEntity
  8
2
  6
CENTER
 62
     1
100
AcDbLine
 10
4143.546534
 20
183.840402
 30
0.0
 11
4143.546534
 21
232.640406
 31
0.0
  0
LINE
  5
58A
100
AcDbEntity
  8
2
  6
CENTER
 62
     1
100
AcDbLine
 10
4143.546534
 20
183.840402
 30
0.0
 11
4143.546534
 21
232.640406
 31
0.0
  0
LINE
  5
58B
100
AcDbEntity
  8
2
  6
Continuous
 62
     1
100
AcDbLine
 10
4179.146538
 20
215.940406
 30
0.0
 11
4167.946537
 21
230.140403
 31
0.0
  0
ARC
  5
58C
100
AcDbEntity
  8
2
  6
Continuous
 62
     1
100
AcDbCircle
 10
4171.546544
 20
232.640406
 30
0.0
 40
4.500001
100
AcDbArc
 50
144.901026
 51
-147.719137
  0
ARC
  5
58D
100
AcDbEntity
  8
2
  6
Continuous
 62
     1
100
AcDbCircle
 10
4174.74654
 20
248.640406
 30
0.0
 40
3.000001
100
AcDbArc
 50
90.01167
 51
-90.022287
  0
LINE
  5
58E
100
AcDbEntity
  8
2
  6
Continuous
 62
     1
100
AcDbLine
 10
4176.246541
 20
245.640405
 30
0.0
 11
4167.946537
 21
235.140403
 31
0.0
  0
LINE
  5
58F
100
AcDbEntity
  8
2
  6
Continuous
 62
     1
100
AcDbLine
 10
4167.946537
 20
262.140404
 30
0.0
 11
4176.246541
 21
251.640407
 31
0.0
  0
ARC
  5
590
100
AcDbEntity
  8
2
  6
Continuous
 62
     1
100
AcDbCircle
 10
4171.546544
 20
264.640401
 30
0.0
 40
4.500001
100
AcDbArc
 50
144.901026
 51
-147.719137
  0
LINE
  5
591
100
AcDbEntity
  8
2
  6
Continuous
 62
     1
100
AcDbLine
 10
4176.246541
 20
277.640407
 30
0.0
 11
4167.946537
 21
267.140404
 31
0.0
  0
LINE
  5
592
100
AcDbEntity
  8
2
  6
Continuous
 62
     1
100
AcDbLine
 10
4167.946537
 20
262.140404
 30
0.0
 11
4176.246541
 21
251.640407
 31
0.0
  0
LINE
  5
593
100
AcDbEntity
  8
2
  6
Continuous
 62
     1
100
AcDbLine
 10
4171.746539
 20
264.640401
 30
0.0
 11
4316.046543
 21
264.640401
 31
0.0
  0
LINE
  5
594
100
AcDbEntity
  8
2
  6
Continuous
 62
     1
100
AcDbLine
 10
4174.74654
 20
251.640407
 30
0.0
 11
4316.046543
 21
251.640407
 31
0.0
  0
LINE
  5
595
100
AcDbEntity
  8
2
  6
CENTER
 62
     1
100
AcDbLine
 10
4168.546538
 20
248.640406
 30
0.0
 11
4316.046543
 21
248.640406
 31
0.0
  0
LINE
  5
596
100
AcDbEntity
  8
2
  6
Continuous
 62
     1
100
AcDbLine
 10
4174.74654
 20
245.640405
 30
0.0
 11
4316.046543
 21
245.640405
 31
0.0
  0
LINE
  5
597
100
AcDbEntity
  8
2
  6
Continuous
 62
     1
100
AcDbLine
 10
4171.746539
 20
232.640406
 30
0.0
 11
4316.046543
 21
232.640406
 31
0.0
  0
LINE
  5
598
100
AcDbEntity
  8
2
  6
Continuous
 62
     1
100
AcDbLine
 10
4316.046543
 20
216.640405
 30
0.0
 11
4123.546536
 21
216.640405
 31
0.0
  0
LINE
  5
599
100
AcDbEntity
  8
2
  6
Continuous
 62
     1
100
AcDbLine
 10
4156.046543
 20
196.640401
 30
0.0
 11
4156.046543
 21
189.840409
 31
0.0
  0
LINE
  5
59A
100
AcDbEntity
  8
2
  6
Continuous
 62
     1
100
AcDbLine
 10
4123.546536
 20
196.640401
 30
0.0
 11
4316.046543
 21
196.640401
 31
0.0
  0
LINE
  5
59B
100
AcDbEntity
  8
2
  6
Continuous
 62
     1
100
AcDbLine
 10
4156.046543
 20
194.340405
 30
0.0
 11
4316.046543
 21
194.340405
 31
0.0
  0
LINE
  5
59C
100
AcDbEntity
  8
2
  6
Continuous
 62
     1
100
AcDbLine
 10
4156.046543
 20
192.840404
 30
0.0
 11
4316.046543
 21
192.840404
 31
0.0
  0
LINE
  5
59D
100
AcDbEntity
  8
2
  6
Continuous
 62
     1
100
AcDbLine
 10
4156.046543
 20
189.840409
 30
0.0
 11
4316.046543
 21
189.840409
 31
0.0
  0
LINE
  5
59E
100
AcDbEntity
  8
2
  6
Continuous
 62
     1
100
AcDbLine
 10
4508.54655
 20
216.640405
 30
0.0
 11
4508.54655
 21
196.640401
 31
0.0
  0
LINE
  5
59F
100
AcDbEntity
  8
2
  6
CENTER
 62
     1
100
AcDbLine
 10
4488.546552
 20
183.840402
 30
0.0
 11
4488.546552
 21
232.640406
 31
0.0
  0
LINE
  5
5A0
100
AcDbEntity
  8
2
  6
CENTER
 62
     1
100
AcDbLine
 10
4488.546552
 20
183.840402
 30
0.0
 11
4488.546552
 21
232.640406
 31
0.0
  0
LINE
  5
5A1
100
AcDbEntity
  8
2
  6
Continuous
 62
     1
100
AcDbLine
 10
4452.946548
 20
215.940406
 30
0.0
 11
4464.14655
 21
230.140403
 31
0.0
  0
ARC
  5
5A2
100
AcDbEntity
  8
2
  6
Continuous
 62
     1
100
AcDbCircle
 10
4460.546542
 20
232.640406
 30
0.0
 40
4.500001
100
AcDbArc
 50
-32.280863
 51
35.098974
  0
ARC
  5
5A3
100
AcDbEntity
  8
2
  6
Continuous
 62
     1
100
AcDbCircle
 10
4457.346546
 20
248.640406
 30
0.0
 40
3.000001
100
AcDbArc
 50
-89.977713
 51
89.98833
  0
LINE
  5
5A4
100
AcDbEntity
  8
2
  6
Continuous
 62
     1
100
AcDbLine
 10
4455.846546
 20
245.640405
 30
0.0
 11
4464.14655
 21
235.140403
 31
0.0
  0
LINE
  5
5A5
100
AcDbEntity
  8
2
  6
Continuous
 62
     1
100
AcDbLine
 10
4464.14655
 20
262.140404
 30
0.0
 11
4455.846546
 21
251.640407
 31
0.0
  0
ARC
  5
5A6
100
AcDbEntity
  8
2
  6
Continuous
 62
     1
100
AcDbCircle
 10
4460.546542
 20
264.640401
 30
0.0
 40
4.500001
100
AcDbArc
 50
-32.280863
 51
35.098974
  0
LINE
  5
5A7
100
AcDbEntity
  8
2
  6
Continuous
 62
     1
100
AcDbLine
 10
4455.846546
 20
277.640407
 30
0.0
 11
4464.14655
 21
267.140404
 31
0.0
  0
LINE
  5
5A8
100
AcDbEntity
  8
2
  6
Continuous
 62
     1
100
AcDbLine
 10
4464.14655
 20
262.140404
 30
0.0
 11
4455.846546
 21
251.640407
 31
0.0
  0
LINE
  5
5A9
100
AcDbEntity
  8
2
  6
Continuous
 62
     1
100
AcDbLine
 10
4460.346547
 20
264.640401
 30
0.0
 11
4316.046543
 21
264.640401
 31
0.0
  0
LINE
  5
5AA
100
AcDbEntity
  8
2
  6
Continuous
 62
     1
100
AcDbLine
 10
4457.346546
 20
251.640407
 30
0.0
 11
4316.046543
 21
251.640407
 31
0.0
  0
LINE
  5
5AB
100
AcDbEntity
  8
2
  6
CENTER
 62
     1
100
AcDbLine
 10
4463.546548
 20
248.640406
 30
0.0
 11
4316.046543
 21
248.640406
 31
0.0
  0
LINE
  5
5AC
100
AcDbEntity
  8
2
  6
Continuous
 62
     1
100
AcDbLine
 10
4457.346546
 20
245.640405
 30
0.0
 11
4316.046543
 21
245.640405
 31
0.0
  0
LINE
  5
5AD
100
AcDbEntity
  8
2
  6
Continuous
 62
     1
100
AcDbLine
 10
4460.346547
 20
232.640406
 30
0.0
 11
4316.046543
 21
232.640406
 31
0.0
  0
LINE
  5
5AE
100
AcDbEntity
  8
2
  6
Continuous
 62
     1
100
AcDbLine
 10
4316.046543
 20
216.640405
 30
0.0
 11
4508.54655
 21
216.640405
 31
0.0
  0
LINE
  5
5AF
100
AcDbEntity
  8
2
  6
Continuous
 62
     1
100
AcDbLine
 10
4476.046543
 20
196.640401
 30
0.0
 11
4476.046543
 21
189.840409
 31
0.0
  0
LINE
  5
5B0
100
AcDbEntity
  8
2
  6
Continuous
 62
     1
100
AcDbLine
 10
4508.54655
 20
196.640401
 30
0.0
 11
4316.046543
 21
196.640401
 31
0.0
  0
LINE
  5
5B1
100
AcDbEntity
  8
2
  6
Continuous
 62
     1
100
AcDbLine
 10
4476.046543
 20
194.340405
 30
0.0
 11
4316.046543
 21
194.340405
 31
0.0
  0
LINE
  5
5B2
100
AcDbEntity
  8
2
  6
Continuous
 62
     1
100
AcDbLine
 10
4476.046543
 20
192.840404
 30
0.0
 11
4316.046543
 21
192.840404
 31
0.0
  0
LINE
  5
5B3
100
AcDbEntity
  8
2
  6
Continuous
 62
     1
100
AcDbLine
 10
4476.046543
 20
189.840409
 30
0.0
 11
4316.046543
 21
189.840409
 31
0.0
  0
ARC
  5
5B4
100
AcDbEntity
  8
2
  6
Continuous
 62
     1
100
AcDbCircle
 10
4194.825975
 20
155.240404
 30
0.0
 40
1.000002
100
AcDbArc
 50
-84.292709
 51
-0.010617
  0
LINE
  5
5B5
100
AcDbEntity
  8
2
  6
Continuous
 62
     1
100
AcDbLine
 10
4195.725974
 20
158.540408
 30
0.0
 11
4195.825972
 21
155.240404
 31
0.0
  0
ARC
  5
5B6
100
AcDbEntity
  8
2
  6
Continuous
 62
     1
100
AcDbCircle
 10
4195.225971
 20
152.040408
 30
0.0
 40
2.199999
100
AcDbArc
 50
97.7466
 51
-90.022287
  0
LINE
  5
5B7
100
AcDbEntity
  8
2
  6
Continuous
 62
     1
100
AcDbLine
 10
4195.725974
 20
158.540408
 30
0.0
 11
4316.046543
 21
158.540408
 31
0.0
  0
LINE
  5
5B8
100
AcDbEntity
  8
2
  6
Continuous
 62
     1
100
AcDbLine
 10
4195.225971
 20
154.14041
 30
0.0
 11
4316.046543
 21
154.14041
 31
0.0
  0
LINE
  5
5B9
100
AcDbEntity
  8
2
  6
Continuous
 62
     1
100
AcDbLine
 10
4195.225971
 20
152.040408
 30
0.0
 11
4316.046543
 21
152.040408
 31
0.0
  0
LINE
  5
5BA
100
AcDbEntity
  8
2
  6
Continuous
 62
     1
100
AcDbLine
 10
4195.225971
 20
149.840409
 30
0.0
 11
4316.046543
 21
149.840409
 31
0.0
  0
ARC
  5
5BB
100
AcDbEntity
  8
2
  6
Continuous
 62
     1
100
AcDbCircle
 10
4437.267111
 20
155.240404
 30
0.0
 40
1.000002
100
AcDbArc
 50
-179.989383
 51
-95.707291
  0
LINE
  5
5BC
100
AcDbEntity
  8
2
  6
Continuous
 62
     1
100
AcDbLine
 10
4436.367112
 20
158.540408
 30
0.0
 11
4436.267114
 21
155.240404
 31
0.0
  0
ARC
  5
5BD
100
AcDbEntity
  8
2
  6
Continuous
 62
     1
100
AcDbCircle
 10
4436.867116
 20
152.040408
 30
0.0
 40
2.199999
100
AcDbArc
 50
-89.977713
 51
82.2534
  0
LINE
  5
5BE
100
AcDbEntity
  8
2
  6
Continuous
 62
     1
100
AcDbLine
 10
4436.367112
 20
158.540408
 30
0.0
 11
4316.046543
 21
158.540408
 31
0.0
  0
LINE
  5
5BF
100
AcDbEntity
  8
2
  6
Continuous
 62
     1
100
AcDbLine
 10
4436.867116
 20
154.14041
 30
0.0
 11
4316.046543
 21
154.14041
 31
0.0
  0
LINE
  5
5C0
100
AcDbEntity
  8
2
  6
Continuous
 62
     1
100
AcDbLine
 10
4436.867116
 20
152.040408
 30
0.0
 11
4316.046543
 21
152.040408
 31
0.0
  0
LINE
  5
5C1
100
AcDbEntity
  8
2
  6
Continuous
 62
     1
100
AcDbLine
 10
4436.867116
 20
149.840409
 30
0.0
 11
4316.046543
 21
149.840409
 31
0.0
  0
LINE
  5
5C2
100
AcDbEntity
  8
2
  6
Continuous
 62
     1
100
AcDbLine
 10
4196.552417
 20
158.540408
 30
0.0
 11
4195.259029
 21
189.840409
 31
0.0
  0
LINE
  5
5C3
100
AcDbEntity
  8
2
  6
Continuous
 62
     1
100
AcDbLine
 10
4435.540669
 20
158.540408
 30
0.0
 11
4436.834058
 21
189.840409
 31
0.0
  0
LINE
  5
5C4
100
AcDbEntity
  8
2
  6
Continuous
 62
     1
100
AcDbLine
 10
4260.148364
 20
680.60121
 30
0.0
 11
4260.048361
 21
680.60121
 31
0.0
  0
LINE
  5
5C5
100
AcDbEntity
  8
2
  6
CENTER
 62
     1
100
AcDbLine
 10
4076.681218
 20
1027.079261
 30
0.0
 11
4555.411868
 21
1027.079261
 31
0.0
  0
LINE
  5
5C6
100
AcDbEntity
  8
2
  6
CENTER
 62
     1
100
AcDbLine
 10
4316.046543
 20
1266.444585
 30
0.0
 11
4316.046543
 21
787.713936
 31
0.0
  0
CIRCLE
  5
5C7
100
AcDbEntity
  8
2
  6
PHANTOM
 62
     1
100
AcDbCircle
 10
4316.046543
 20
1027.079261
 30
0.0
 40
172.5
  0
CIRCLE
  5
5C8
100
AcDbEntity
  8
2
  6
Continuous
 62
     1
100
AcDbCircle
 10
4316.046543
 20
1027.079261
 30
0.0
 40
192.5
  0
CIRCLE
  5
5C9
100
AcDbEntity
  8
2
  6
Continuous
 62
     1
100
AcDbCircle
 10
4316.046543
 20
1027.079261
 30
0.0
 40
160.0
  0
CIRCLE
  5
5CA
100
AcDbEntity
  8
2
  6
Continuous
 62
     1
100
AcDbCircle
 10
4316.046543
 20
1027.079261
 30
0.0
 40
133.5
  0
CIRCLE
  5
5CB
100
AcDbEntity
  8
2
  6
HIDDEN
 62
     1
100
AcDbCircle
 10
4316.046543
 20
1027.079261
 30
0.0
 40
135.0
  0
LINE
  5
5CC
100
AcDbEntity
  8
2
  6
CENTER
 62
     1
100
AcDbLine
 10
4481.994729
 20
1122.889491
 30
0.0
 11
4448.877121
 21
1103.769031
 31
0.0
  0
CIRCLE
  5
5CD
100
AcDbEntity
  8
2
  6
Continuous
 62
     1
100
AcDbCircle
 10
4465.435925
 20
1113.32926
 30
0.0
 40
11.5
  0
CIRCLE
  5
5CE
100
AcDbEntity
  8
2
  6
Continuous
 62
     1
100
AcDbCircle
 10
4488.546543
 20
1027.079261
 30
0.0
 40
11.5
  0
LINE
  5
5CF
100
AcDbEntity
  8
2
  6
CENTER
 62
     1
100
AcDbLine
 10
4411.856773
 20
1193.027446
 30
0.0
 11
4392.736313
 21
1159.909839
 31
0.0
  0
CIRCLE
  5
5D0
100
AcDbEntity
  8
2
  6
Continuous
 62
     1
100
AcDbCircle
 10
4402.296543
 20
1176.468642
 30
0.0
 40
11.5
  0
CIRCLE
  5
5D1
100
AcDbEntity
  8
2
  6
Continuous
 62
     1
100
AcDbCircle
 10
4316.046543
 20
1199.579261
 30
0.0
 40
11.5
  0
LINE
  5
5D2
100
AcDbEntity
  8
2
  6
CENTER
 62
     1
100
AcDbLine
 10
4150.098358
 20
1122.889491
 30
0.0
 11
4183.215966
 21
1103.769031
 31
0.0
  0
CIRCLE
  5
5D3
100
AcDbEntity
  8
2
  6
Continuous
 62
     1
100
AcDbCircle
 10
4166.657162
 20
1113.32926
 30
0.0
 40
11.5
  0
CIRCLE
  5
5D4
100
AcDbEntity
  8
2
  6
Continuous
 62
     1
100
AcDbCircle
 10
4143.546544
 20
1027.079261
 30
0.0
 40
11.5
  0
LINE
  5
5D5
100
AcDbEntity
  8
2
  6
CENTER
 62
     1
100
AcDbLine
 10
4220.236314
 20
1193.027446
 30
0.0
 11
4239.356774
 21
1159.909839
 31
0.0
  0
CIRCLE
  5
5D6
100
AcDbEntity
  8
2
  6
Continuous
 62
     1
100
AcDbCircle
 10
4229.796544
 20
1176.468642
 30
0.0
 40
11.5
  0
LINE
  5
5D7
100
AcDbEntity
  8
2
  6
CENTER
 62
     1
100
AcDbLine
 10
4481.994729
 20
931.269031
 30
0.0
 11
4448.877121
 21
950.38949
 31
0.0
  0
CIRCLE
  5
5D8
100
AcDbEntity
  8
2
  6
Continuous
 62
     1
100
AcDbCircle
 10
4465.435925
 20
940.829261
 30
0.0
 40
11.5
  0
LINE
  5
5D9
100
AcDbEntity
  8
2
  6
CENTER
 62
     1
100
AcDbLine
 10
4411.856773
 20
861.131075
 30
0.0
 11
4392.736313
 21
894.248682
 31
0.0
  0
CIRCLE
  5
5DA
100
AcDbEntity
  8
2
  6
Continuous
 62
     1
100
AcDbCircle
 10
4402.296543
 20
877.689879
 30
0.0
 40
11.5
  0
CIRCLE
  5
5DB
100
AcDbEntity
  8
2
  6
Continuous
 62
     1
100
AcDbCircle
 10
4316.046543
 20
854.579261
 30
0.0
 40
11.5
  0
LINE
  5
5DC
100
AcDbEntity
  8
2
  6
CENTER
 62
     1
100
AcDbLine
 10
4150.098358
 20
931.269031
 30
0.0
 11
4183.215966
 21
950.38949
 31
0.0
  0
CIRCLE
  5
5DD
100
AcDbEntity
  8
2
  6
Continuous
 62
     1
100
AcDbCircle
 10
4166.657162
 20
940.829261
 30
0.0
 40
11.5
  0
LINE
  5
5DE
100
AcDbEntity
  8
2
  6
CENTER
 62
     1
100
AcDbLine
 10
4220.236314
 20
861.131075
 30
0.0
 11
4239.356774
 21
894.248682
 31
0.0
  0
CIRCLE
  5
5DF
100
AcDbEntity
  8
2
  6
Continuous
 62
     1
100
AcDbCircle
 10
4229.796544
 20
877.689879
 30
0.0
 40
11.5
  0
LINE
  5
5E0
100
AcDbEntity
  8
2
  6
Continuous
 62
     1
100
AcDbLine
 10
4123.546536
 20
664.640411
 30
0.0
 11
4123.546536
 21
684.640409
 31
0.0
  0
LINE
  5
5E1
100
AcDbEntity
  8
2
  6
CENTER
 62
     1
100
AcDbLine
 10
4143.546534
 20
697.440408
 30
0.0
 11
4143.546534
 21
648.64041
 31
0.0
  0
LINE
  5
5E2
100
AcDbEntity
  8
2
  6
CENTER
 62
     1
100
AcDbLine
 10
4143.546534
 20
652.34041
 30
0.0
 11
4143.546534
 21
697.440408
 31
0.0
  0
LINE
  5
5E3
100
AcDbEntity
  8
2
  6
Continuous
 62
     1
100
AcDbLine
 10
4123.546536
 20
684.640409
 30
0.0
 11
4316.046543
 21
684.640409
 31
0.0
  0
LINE
  5
5E4
100
AcDbEntity
  8
2
  6
Continuous
 62
     1
100
AcDbLine
 10
4316.046543
 20
664.640411
 30
0.0
 11
4123.546536
 21
664.640411
 31
0.0
  0
ARC
  5
5E5
100
AcDbEntity
  8
2
  6
Continuous
 62
     1
100
AcDbCircle
 10
4171.546544
 20
648.64041
 30
0.0
 40
4.500001
100
AcDbArc
 50
147.70852
 51
-144.911644
  0
ARC
  5
5E6
100
AcDbEntity
  8
2
  6
Continuous
 62
     1
100
AcDbCircle
 10
4174.74654
 20
632.640409
 30
0.0
 40
3.000001
100
AcDbArc
 50
90.01167
 51
-90.022287
  0
LINE
  5
5E7
100
AcDbEntity
  8
2
  6
Continuous
 62
     1
100
AcDbLine
 10
4176.246541
 20
635.640405
 30
0.0
 11
4167.946537
 21
646.140408
 31
0.0
  0
LINE
  5
5E8
100
AcDbEntity
  8
2
  6
Continuous
 62
     1
100
AcDbLine
 10
4167.946537
 20
619.140406
 30
0.0
 11
4176.246541
 21
629.640409
 31
0.0
  0
ARC
  5
5E9
100
AcDbEntity
  8
2
  6
Continuous
 62
     1
100
AcDbCircle
 10
4171.546544
 20
616.640403
 30
0.0
 40
4.500001
100
AcDbArc
 50
147.70852
 51
-144.911644
  0
LINE
  5
5EA
100
AcDbEntity
  8
2
  6
Continuous
 62
     1
100
AcDbLine
 10
4176.246541
 20
603.640409
 30
0.0
 11
4167.946537
 21
614.140406
 31
0.0
  0
LINE
  5
5EB
100
AcDbEntity
  8
2
  6
Continuous
 62
     1
100
AcDbLine
 10
4167.946537
 20
619.140406
 30
0.0
 11
4176.246541
 21
629.640409
 31
0.0
  0
LINE
  5
5EC
100
AcDbEntity
  8
2
  6
Continuous
 62
     1
100
AcDbLine
 10
4178.594427
 20
664.640411
 30
0.0
 11
4167.946537
 21
651.140407
 31
0.0
  0
LINE
  5
5ED
100
AcDbEntity
  8
2
  6
Continuous
 62
     1
100
AcDbLine
 10
4171.746539
 20
648.64041
 30
0.0
 11
4316.046543
 21
648.64041
 31
0.0
  0
LINE
  5
5EE
100
AcDbEntity
  8
2
  6
Continuous
 62
     1
100
AcDbLine
 10
4174.74654
 20
635.640405
 30
0.0
 11
4316.046543
 21
635.640405
 31
0.0
  0
LINE
  5
5EF
100
AcDbEntity
  8
2
  6
CENTER
 62
     1
100
AcDbLine
 10
4168.546538
 20
632.640409
 30
0.0
 11
4316.046543
 21
632.640409
 31
0.0
  0
LINE
  5
5F0
100
AcDbEntity
  8
2
  6
Continuous
 62
     1
100
AcDbLine
 10
4174.74654
 20
629.640409
 30
0.0
 11
4316.046543
 21
629.640409
 31
0.0
  0
LINE
  5
5F1
100
AcDbEntity
  8
2
  6
Continuous
 62
     1
100
AcDbLine
 10
4171.746539
 20
616.640403
 30
0.0
 11
4316.046543
 21
616.640403
 31
0.0
  0
LINE
  5
5F2
100
AcDbEntity
  8
2
  6
Continuous
 62
     1
100
AcDbLine
 10
4156.046543
 20
684.640409
 30
0.0
 11
4156.046543
 21
689.840409
 31
0.0
  0
LINE
  5
5F3
100
AcDbEntity
  8
2
  6
Continuous
 62
     1
100
AcDbLine
 10
4156.046543
 20
689.840409
 30
0.0
 11
4316.046543
 21
689.840409
 31
0.0
  0
LINE
  5
5F4
100
AcDbEntity
  8
2
  6
Continuous
 62
     1
100
AcDbLine
 10
4156.046543
 20
686.840408
 30
0.0
 11
4316.046543
 21
686.840408
 31
0.0
  0
LINE
  5
5F5
100
AcDbEntity
  8
2
  6
Continuous
 62
     1
100
AcDbLine
 10
4156.046543
 20
686.040406
 30
0.0
 11
4316.046543
 21
686.040406
 31
0.0
  0
LINE
  5
5F6
100
AcDbEntity
  8
2
  6
Continuous
 62
     1
100
AcDbLine
 10
4508.54655
 20
664.640411
 30
0.0
 11
4508.54655
 21
684.640409
 31
0.0
  0
LINE
  5
5F7
100
AcDbEntity
  8
2
  6
CENTER
 62
     1
100
AcDbLine
 10
4488.546552
 20
697.440408
 30
0.0
 11
4488.546552
 21
648.64041
 31
0.0
  0
LINE
  5
5F8
100
AcDbEntity
  8
2
  6
CENTER
 62
     1
100
AcDbLine
 10
4488.546552
 20
652.34041
 30
0.0
 11
4488.546552
 21
697.440408
 31
0.0
  0
LINE
  5
5F9
100
AcDbEntity
  8
2
  6
Continuous
 62
     1
100
AcDbLine
 10
4508.54655
 20
684.640409
 30
0.0
 11
4316.046543
 21
684.640409
 31
0.0
  0
LINE
  5
5FA
100
AcDbEntity
  8
2
  6
Continuous
 62
     1
100
AcDbLine
 10
4316.046543
 20
664.640411
 30
0.0
 11
4508.54655
 21
664.640411
 31
0.0
  0
ARC
  5
5FB
100
AcDbEntity
  8
2
  6
Continuous
 62
     1
100
AcDbCircle
 10
4460.546542
 20
648.64041
 30
0.0
 40
4.500001
100
AcDbArc
 50
-35.088356
 51
32.29148
  0
ARC
  5
5FC
100
AcDbEntity
  8
2
  6
Continuous
 62
     1
100
AcDbCircle
 10
4457.346546
 20
632.640409
 30
0.0
 40
3.000001
100
AcDbArc
 50
-89.977713
 51
89.98833
  0
LINE
  5
5FD
100
AcDbEntity
  8
2
  6
Continuous
 62
     1
100
AcDbLine
 10
4455.846546
 20
635.640405
 30
0.0
 11
4464.14655
 21
646.140408
 31
0.0
  0
LINE
  5
5FE
100
AcDbEntity
  8
2
  6
Continuous
 62
     1
100
AcDbLine
 10
4464.14655
 20
619.140406
 30
0.0
 11
4455.846546
 21
629.640409
 31
0.0
  0
ARC
  5
5FF
100
AcDbEntity
  8
2
  6
Continuous
 62
     1
100
AcDbCircle
 10
4460.546542
 20
616.640403
 30
0.0
 40
4.500001
100
AcDbArc
 50
-35.088356
 51
32.29148
  0
LINE
  5
600
100
AcDbEntity
  8
2
  6
Continuous
 62
     1
100
AcDbLine
 10
4455.846546
 20
603.640409
 30
0.0
 11
4464.14655
 21
614.140406
 31
0.0
  0
LINE
  5
601
100
AcDbEntity
  8
2
  6
Continuous
 62
     1
100
AcDbLine
 10
4464.14655
 20
619.140406
 30
0.0
 11
4455.846546
 21
629.640409
 31
0.0
  0
LINE
  5
602
100
AcDbEntity
  8
2
  6
Continuous
 62
     1
100
AcDbLine
 10
4453.49866
 20
664.640411
 30
0.0
 11
4464.14655
 21
651.140407
 31
0.0
  0
LINE
  5
603
100
AcDbEntity
  8
2
  6
Continuous
 62
     1
100
AcDbLine
 10
4460.346547
 20
648.64041
 30
0.0
 11
4316.046543
 21
648.64041
 31
0.0
  0
LINE
  5
604
100
AcDbEntity
  8
2
  6
Continuous
 62
     1
100
AcDbLine
 10
4457.346546
 20
635.640405
 30
0.0
 11
4316.046543
 21
635.640405
 31
0.0
  0
LINE
  5
605
100
AcDbEntity
  8
2
  6
CENTER
 62
     1
100
AcDbLine
 10
4463.546548
 20
632.640409
 30
0.0
 11
4316.046543
 21
632.640409
 31
0.0
  0
LINE
  5
606
100
AcDbEntity
  8
2
  6
Continuous
 62
     1
100
AcDbLine
 10
4457.346546
 20
629.640409
 30
0.0
 11
4316.046543
 21
629.640409
 31
0.0
  0
LINE
  5
607
100
AcDbEntity
  8
2
  6
Continuous
 62
     1
100
AcDbLine
 10
4460.346547
 20
616.640403
 30
0.0
 11
4316.046543
 21
616.640403
 31
0.0
  0
LINE
  5
608
100
AcDbEntity
  8
2
  6
Continuous
 62
     1
100
AcDbLine
 10
4476.046543
 20
684.640409
 30
0.0
 11
4476.046543
 21
689.840409
 31
0.0
  0
LINE
  5
609
100
AcDbEntity
  8
2
  6
Continuous
 62
     1
100
AcDbLine
 10
4476.046543
 20
689.840409
 30
0.0
 11
4316.046543
 21
689.840409
 31
0.0
  0
LINE
  5
60A
100
AcDbEntity
  8
2
  6
Continuous
 62
     1
100
AcDbLine
 10
4476.046543
 20
686.840408
 30
0.0
 11
4316.046543
 21
686.840408
 31
0.0
  0
LINE
  5
60B
100
AcDbEntity
  8
2
  6
Continuous
 62
     1
100
AcDbLine
 10
4476.046543
 20
686.040406
 30
0.0
 11
4316.046543
 21
686.040406
 31
0.0
  0
LINE
  5
60C
100
AcDbEntity
  8
2
  6
CENTER
 62
     1
100
AcDbLine
 10
4316.046543
 20
705.874303
 30
0.0
 11
4316.046543
 21
126.034676
 31
0.0
  0
LINE
  5
60D
100
AcDbEntity
  8
2
  6
CENTER
 62
     1
100
AcDbLine
 10
3719.546529
 20
264.640401
 30
0.0
 11
3719.546529
 21
605.780093
 31
0.0
  0
LINE
  5
60E
100
AcDbEntity
  8
2
  6
CENTER
 62
     1
100
AcDbLine
 10
4017.546529
 20
264.640401
 30
0.0
 11
4017.546529
 21
605.780093
 31
0.0
  0
LINE
  5
60F
100
AcDbEntity
  8
2
  6
CENTER
 62
     1
100
AcDbLine
 10
4167.046543
 20
264.640401
 30
0.0
 11
4167.046543
 21
617.780093
 31
0.0
  0
LINE
  5
610
100
AcDbEntity
  8
2
  6
CENTER
 62
     1
100
AcDbLine
 10
4465.046543
 20
264.640401
 30
0.0
 11
4465.046543
 21
617.780093
 31
0.0
  0
ENDSEC
  0
SECTION
  2
OBJECTS
  0
DICTIONARY
  5
19
100
AcDbDictionary
280
     0
281
     1
  3
ACAD_GROUP
350
1A
  3
ACAD_MLINESTYLE
350
1B
  3
ACAD_LAYOUT
350
1E
  3
ACAD_PLOTSETTINGS
350
22
  3
ACAD_PLOTSTYLENAME
350
1F
  3
ACAD_WIPEOUT_VARS
350
23
  0
DICTIONARY
  5
1A
102
{ACAD_REACTORS
330
19
102
}
100
AcDbDictionary
280
     0
281
     1
  0
DICTIONARY
  5
1B
102
{ACAD_REACTORS
330
19
102
}
100
AcDbDictionary
280
     0
281
     1
  3
Standard
350
1C
  0
MLINESTYLE
  5
1C
102
{ACAD_REACTORS
330
1B
102
}
100
AcDbMlineStyle
  2
Standard
 70
     0
  3

 62
     0
 51
90.0
 52
90.0
 71
     2
 49
0.5
 62
   256
  6
BYLAYER
 49
-0.5
 62
   256
  6
BYLAYER
  0
ACDBDICTIONARYWDFLT
  5
1F
102
{ACAD_REACTORS
330
19
102
}
100
AcDbDictionary
281
     1
  3
Normal
350
1D
100
AcDbDictionaryWithDefault
340
1D
  0
ACDBPLACEHOLDER
  5
1D
102
{ACAD_REACTORS
330
1F
102
}
  0
LAYOUT
  5
20
102
{ACAD_REACTORS
330
1E
102
}
100
AcDbPlotSettings
  1

  2

  4

  6

 40
0.0
 41
0.0
 42
0.0
 43
0.0
 44
0.0
 45
0.0
 46
0.0
 47
0.0
 48
0.0
 49
0.0
140
0.0
141
0.0
142
1.0
143
1.0
 70
  1024
 72
     0
 73
     0
 74
     0
  7

 75
     0
147
1.0
148
0.0
149
0.0
100
AcDbLayout
  1
Model
 70
     0
 71
     0
 10
0.0
 20
0.0
 11
0.0
 21
0.0
 12
0.0
 22
0.0
 32
0.0
 14
0.0
 24
0.0
 34
0.0
 15
0.0
 25
0.0
 35
0.0
146
0.0
 13
0.0
 23
0.0
 33
0.0
 16
0.0
 26
0.0
 36
0.0
 17
0.0
 27
0.0
 37
0.0
 76
     0
330
A
331
0
345
0
346
0
  0
LAYOUT
  5
21
102
{ACAD_REACTORS
330
1E
102
}
100
AcDbPlotSettings
  1

  2

  4

  6

 40
0.0
 41
0.0
 42
0.0
 43
0.0
 44
0.0
 45
0.0
 46
0.0
 47
0.0
 48
0.0
 49
0.0
140
0.0
141
0.0
142
1.0
143
1.0
 70
     0
 72
     0
 73
     0
 74
     0
  7

 75
     0
147
1.0
148
0.0
149
0.0
100
AcDbLayout
  1
Layout1
 70
     0
 71
     0
 10
0.0
 20
0.0
 11
0.0
 21
0.0
 12
0.0
 22
0.0
 32
0.0
 14
0.0
 24
0.0
 34
0.0
 15
0.0
 25
0.0
 35
0.0
146
0.0
 13
0.0
 23
0.0
 33
0.0
 16
0.0
 26
0.0
 36
0.0
 17
0.0
 27
0.0
 37
0.0
 76
     0
330
B
331
0
345
0
346
0
  0
DICTIONARY
  5
1E
102
{ACAD_REACTORS
330
19
102
}
100
AcDbDictionary
280
     0
281
     1
  3
Layout1
350
21
  3
Model
350
20
  0
DICTIONARY
  5
22
102
{ACAD_REACTORS
330
19
102
}
100
AcDbDictionary
280
     0
281
     1
  0
WIPEOUTVARIABLES
  5
23
100
AcDbWipeoutVariables
 70
     1
  0
ENDSEC
  0
EOF
